Song name
# A B C D E F G H I J K L M N O P Q R S T U V W X Y Z

Shamrock - Sana tab

Help us improve GuitareTab! Take a short survey!
Highlighted       Show chord diagrams
SANA by Kenyo

INTRO: 

Guitar 1:
e|-------------------|
B|-7---5---4---5-----|
G|---4---4---4---4---|  10x yata...
D|-------------------|
A|-------------------|
E|-------------------|

Guitar 2:
e|-7777/4-4/2-2-0-2/4-4--12+-----|
B|--------------------------12+--|
G|-------------------------------|
D|-------------------------------|
A|-------------------------------|
E|-------------------------------|

VERSE:
E                             A
Sana ang buhay ay walang dulo o hangganan
E                              A
Sana'y wala nang taong mahirap o mayaman
F#m                    F#m
  Sana'y iisa ang kulay; sana'y wala nang away

CHORUS:
  E                  A            E                    A
  Sana'y pagibig nalang ang isipin ng bawat isa sa mundo
  E                  A            E              A
  Sana'y pagibig nalang ang isipin sana magkatotoo
F#m                       F#m
  Sana'y laging magbigayan, sana'y laging magmahalan

VERSE:
Sana ang tao'y hindi nagugutom o nauuhaw
Sana'y hindi na gumagabi o umaaraw
Sana'y walang taginit; sana'y walang taglamig

CHORUS:
  E                  A            E                    A
  Sana'y pagibig nalang ang isipin ng bawat isa sa mundo
  E                  A            E              A
  Sana'y pagibig nalang ang isipin sana magkatotoo
F#m                       F#m
  Sana'y laging magbigayan, sana'y laging magmahalan

ADLIB: A-F#m-E--

e|-----7-------------------------7-------------------7------------------12-|
B|-7/9---7-7-----------------7h9---7-9p7-9p7-----7h9----8/9-10-10/12-14----|
G|-----------------------7-9-----------------9-9--------6/8----------------|
D|-------------------7-9---------------------------------------------------|
A|---------------7-9-------------------------------------------------------|
E|-----------7-9-----------------------------------------------------------|
   
     A                   E                    A                E
Tatanda at lilipas din ako ngunit mayrong awiting iiwanan sa inyong alaala
A            E
dahil minsan tayoy nagkasama

  E                  A            E                    A
  Sana'y pagibig nalang ang isipin ng bawat isa sa mundo

F#m                       F#m
  Sana'y laging magbigayan, sana'y laging magmahalan

E
Sana.... 						end at E...
Related for Sana tab