Song name
# A B C D E F G H I J K L M N O P Q R S T U V W X Y Z

Shane And Shane - Psalm 145 chords

Highlighted       Show chord diagrams
-----------------------------------------------------------------------------
			     Chorus to Psalm 145 - Shane and Shane
-----------------------------------------------------------------------------
(Capo 4)

Chords:

    Bm     Bm-trans  G-trans  A 
e|---x-----x---------3--------x-------|
B|---2-----0---------2--------0-------|
G|---4-----4---------0--------2-------|
D|---4-----4---------0h2------2-------|
A|---3-----3h2-------0--------2h3-----|
E|---2-----0---------0--------0-------|

************************************************

Bm
the Lord is gracious
Bm-trans
and slow to anger
G-trans
He is rich in love
A
He is good to all

************************************

| /   slide up
| \   slide down
| h   hammer-on
| p   pull-off
| ~   vibrato
| +   harmonic
| x   Mute note
| b   Bend
| pb  Pre-bend
| br  Bend release
| pbr Pre-bend release
| brb Bend release bend

************************************

Tap to rate this tab
 
# A B C D E F G H I J K L M N O P Q R S T U V W X Y Z