Song name
# A B C D E F G H I J K L M N O P Q R S T U V W X Y Z

Shane And Shane - Psalm 145 tab

--------
*CAPO 4*
--------


Verse:
------
*The picking/trill pattern in this song changes every time Shane plays it,
so the verse part that is tabbed is just a similar pattern.*

   Bm                        A                         G
E|--------------------------------------------------------------------------|
B|------3---2----2h3p2---2-------3---2----2h3p2 2h3p2------3----------------|
G|---------------------2---------------------------------2---2-2h4-4-4p2--0-|
D|----4---4---4----------------4---4---4------------------------------------|
A|--2------------------------0----------------------------------------------|
E|-----------------------------------------------------3--------------------|

    A
E|------------------------|
B|--------------------0---|
G|-------6---6-6h7-7-7----|
D|---------7--------------|
A|------------------------|
E|---3s5------------------|


Chorus:
-------
(Double strum, with muted strums in between)

E|---------------------------------|
B|--3--3---3-----------------------|
G|--4--4---2--7--------------------|
D|--4--4------7--------------------|
A|--2--0---------------------------|
E|---------3--5--------------------|


Chorus End: ("He is good to allll..."
-----------

E|--0--0---------------------------|
B|--3--3-------3-------------------|
G|--2--2-----2---2-2h4-4-4p2--0----|
D|--0--0---------------------------|
A|-----4---------------------------|
E|---------3-----------------------|
Shane uses this picking pattern for most of the rest of the song.
Tap to rate this tab
 
# A B C D E F G H I J K L M N O P Q R S T U V W X Y Z