Shane And Shane - Answer tab

-------------------------------------------------------------------------------
			     THE ANSWER - Shane and Shane
-------------------------------------------------------------------------------
Tabbed by: honmon3
Youtube: www.youtube.com/honmon3

=====2nd Guitar=====

Hi guys, so when I was learning this song, there weren't really any GREAT, AMAZING 
tabs out there that were 100% full and accurate. Thus, learning this song was quite 
challenging, as I had to piece together the parts of the good tabs out there with 
the parts I had to learn by ear/mp3/video. So, I've been playing this song for 
about 3 years now, and I have it pretty much EXACTLY the way Shane and Shane play it. 
Some parts may not seem right/may seem a little weird and funky at first play, 
but I assure you each note in each chord has been carefully screened for correctness 
and accuracy to the song. This is not only a great song, but a fun one to learn on 
guitar as well. 
Enjoy and God bless.

I highly suggest listening to the song to help you see/hear how the tabs are played 
IN CONTEXT with the actual song. Go to my youtube video: 
http://www.youtube.com/watch?v=xtD2sfH0occ to see me play only the 2nd guitar 
part, EXACTLY how you see it here.

Visit and subscribe to my channel (youtube.com/honmon3) if you liked this tab 
and/or like my vids!

Tuning: Standard

CAPO 4

=====INTRO/VERSE:=====

e|--------------------------0-------------------------------------------------|
B|--0-0---------1---0-0--1-3----3-3--3-----3----1-1---1-0-1--(0)--------------|
G|--2-2------0h2----0-0--0-0----2-2-------0-----0-0---0-0-0--(0)--------------|
D|--2-2---0h2-----------0-------4-4------4----------0-------------------------|
A|--0-0--0--------------------------------------------------------------------|
E|------------------3-3---------2-2---0h2-------1-1---------------------------|

[Alternate ending of INTRO/VERSE riff, used various times throughout song]
e|-----------------------|
B|----1--0---------------|
G|----0----0-------------|
D|-----------3\2---------|
A|-----------------------|
E|--1--------------------|

=====PRECHORUS:=====
[Watch my video to hear strumming pattern/timings/inflections]

e|---0-0-0-0----x-x-x-x----x-x-x-x----x-x-x-x-----------------------|
B|---0-0-0-0----3-3-3-3----3-3-3-3----1-1-0-0-0---------------------|
G|---2-2-2-2----0-0-0-0----2-2-2-2----2-2-2-2-0---------------------|
D|---2-2-2-2----0-0-0-0----0-0-0-0----3-3-3-3-0---------------------|
A|---0-0-0-0----x-x-x-x----x-x-x-x----x-x-x-x-x---------------------|
E|--------------3-3-3-3----2-2-2-2----x-x-x-x-x---------------------|

Repeat, except the last chord is played a bit differently:
[Again, my video will help see this in context]

e|------3-3--3-3--3--3-3--3-3-3---------------------------------|
B|------0-1--1-1--0--0-0--1-1-1---------------------------------|
G|--(2)-2-2--2-2--0--0-0--2-2-2---------------------------------|
D|---3--3-3--3-3--3--3-3--3-3-3---------------------------------|
A|--------------------------------------------------------------|
E|--------------------------------------------------------------|

=====CHORUS:=====

e|----------------------------------3-1-0--------0----------------|
B|-------1-------1-------------3--3-----------0h1----1h3-3-1--(0)-|
G|------0---0---0---0---------0--0-----------2-----2--------------|
D|---2h3-----2h3-----2h3------------------------------------------|
A|--3----------------------0h2------------------------------------|
E|----------------------------------------------------------------|

e|--------3----3----3---3---3---3----------------------------|
B|--------0h1--1----0---0h1-1---0-------------0-1h3-1p0------|
G|--(0)---0----0----0---0---0---0----------0h2----------2-0--|
D|---0---(0)--(0)--(0)-(0)-(0)-(0)----0h2h3------------------|
A|---x-------------------------------------------------------|
E|---3-------------------------------------------------------|

e|-------0-------0------------------0-------0----------------|
B|---------1-------1------1------------1-------1-------------|
G|-----0-------0------------------0--------0-----(0)---------|
D|--0h2-----0h2------0h2-------0h3------0h3------------------|
A|-----------------------------------------------------------|
E|-----------------------------------------------------------|

e|--------3----3----3---3---3---3-----|
B|--------0h1--1----0---0h1-1---0-----|
G|--(0)---0----0----0---0---0---0-----|
D|---0---(0)--(0)--(0)-(0)-(0)-(0)----|
A|---x--------------------------------|
E|---3--------------------------------|

=====BRIDGE:=====

e|----0--Let this-------0-----0-----0-------0-------Listen to song or----|
B|----1--C chord ring---1-----1-----1-------1-------my video to see------|
G|----0--out------------0*-or-2*-or-0h2*-or-2p0*----how the strumming----|
D|----2-----------------3-----3-----3-------3-------of this chord goes---|
A|----3-----------------3-----3-----3-------3----------------------------|
E|----------------------1-----1-----1-------1----------------------------|

* = for this strumming part, I usually just play around with those notes, because 
there's not one way to play which'll make it sound better. Having the open 0 gives it 
a nice open suspended sound, and throwing in the 2 makes it sound a bit more resolved. 
Hammering and pulling off and using both gives it a taste of both options. It's up to you!

e|--1----0-0-0--0-0--0-----------3---3---3---3---------------|
B|--0----1-1-1--1-1--1-----(0)----3---3---3---3--------------|
G|--1----2-2-2--0-0--2------0------0---0---0---0-------------|
D|--2----3-3-3--3-3--3------0--------------------------------|
A|--3----3-3-3--3-3--3------x--------------------------------|
E|-------1-1-1--1-1--1------3--------------------------------|

Once again, strum ^that F chord according to the song. Tabs can't do it justice 
in terms of telling you how to strum.
************************************

| /   slide up
| \   slide down
| h   hammer-on
| p   pull-off
| ~   vibrato
| +   harmonic
| x   Mute note
| b   Bend
| pb  Pre-bend
| br  Bend release
| pbr Pre-bend release
| brb Bend release bend

************************************
Tap to rate this tab
 
# A B C D E F G H I J K L M N O P Q R S T U V W X Y Z