Song name
# A B C D E F G H I J K L M N O P Q R S T U V W X Y Z

Shannon And The Clams - Jimmy tab

Jimmy By Shannon and the Clams

Cool Intro !

E|--5---5h7--5------------------------6----5----5-------------6---5-----------------|
B|-----------------7--5---------------6----5------5-----------6---5-----------------|
G|-------------------------6--6s7-----7----6--------6-6s7-----7---6-----------------|
D|----------------------------------------------------------------------------------|
A|----------------------------------------------------------------------------------|
E|----------------------------------------------------------------------------------|

E|--------------------------7----------------------------------------------------|
B|-------------------------7-----------------------------------------------------|
G|------------------------7------------------------------------------------------|
D|-----------------rake^-7-------------------------------------------------------|
A|---0-----2----4----5--5--------------------------------------------------------|
E|-------------------------------------------------------------------------------|

fills
E|-----5---7-----s12---9--7------------------------------------------------------|
B|-------------------------------------------------------------------------------|
G|-------------------------------------------------------------------------------|
D|-------------------------------------------------------------------------------|
A|-------------------------------------------------------------------------------|
E|-------------------------------------------------------------------------------|

E|-------------------------------------------------------------------------------|
B|-------------------------------------------------------------------------------|
G|----------------5-----------------6--------------------------------------------|
D|-----------6------------------6------------------------------------------------|
A|-----s7------------------s7----------------------------------------------------|
E|-------------------------------------------------------------------------------|

E|------2---4bu---2-----0-------------------------------------------------------|
B|------------------------------------------------------------------------------|
G|------------------------------------------------------------------------------|
D|------------------------------------------------------------------------------|
A|------------------------------------------------------------------------------|
E|------------------------------------------------------------------------------|

Verse


D        G          A         D


D        G          F# WITH THE OPEN E STRING       Bm        F#

Chorus


D        Bm      arpeggiated respectively


Thats it for now

Andrew Sebastian Arriola

http://www.myspace.com/shannonandtheclams
Tap to rate this tab
# A B C D E F G H I J K L M N O P Q R S T U V W X Y Z