Song name
# A B C D E F G H I J K L M N O P Q R S T U V W X Y Z

Shantel - Disco Boy tab

INTRO

D Gm Cm D


E--------------------------------------------------------------------------|
B--------------------------------------------------------------------------|
G---7-8-7------5-7-5------3-5-3-----2-3-2------2-3-3-3-3-2-3-2-3-----------|
D---------10----------8---------7---------5-5------------------------------|
A--------------------------------------------------------------------------|
E--------------------------------------------------------------------------|



E--------------------------------------------------------------------------|
B--------------------------------------------------------------------------|
G---5-7-5-----3-5-3-----2-3-2-----2---------2-2-2-2---2---2------2---------|
D---------8---------7---------5-5---5-4-4-5---------5---5----4-5---5-4-----|
A--------------------------------------------------------------------------|
E--------------------------------------------------------------------------|



E-------------------------------------------------------------------------------------|
B-------------------------------------------------------------------------------------|
G-------2---------2-3-3-3-2-3-2-3--5-7-5----3-5-3----2-3-2-------2-3--5p3p2h3p2-------|
D---4-5---5-4-4-5------------------------8--------7--------5-4-5-----------------5-4-5|
A-------------------------------------------------------------------------------------|
E-------------------------------------------------------------------------------------|

Chorus

D Gm Cm D x2

Refren

D Gm Cm D x2
Tap to rate this tab
# A B C D E F G H I J K L M N O P Q R S T U V W X Y Z