Song name
# A B C D E F G H I J K L M N O P Q R S T U V W X Y Z

Sharan Q - Single Bed tab

Help us improve GuitareTab! Take a short survey!
Single Bed (Shinguru Beddo)
Sharan Q
Tabbed by: RamStormrage


All guitars tuned down one-half step
(Eb Ab Db Gb Bb Eb)



Solo:

|-17b18-17b18-17b18-17~~~----15p14h15p14h15-------------------------|
|-------------------------------------------15-15/17~~-(17)\--------|
|-------------------------------------------------------------------|
|-------------------------------------------------------------------|
|-------------------------------------------------------------------|
|-------------------------------------------------------------------|

|-------------------------------------------------------|
|-17-19-20-19-17-14-15-------15-17-17b18b17-------------|
|----------------------16-18----------------14~~~-------|
|-------------------------------------------------------|
|-------------------------------------------------------|
|-------------------------------------------------------|


|--------------------------------------------------------|
|--------------------------------10----------------------|
|----------7-9b11-9b11r9-----9b11--11r9-7-9-9b11-8~~~~---|
|-------7h9-------------9~~------------------------------|
|-7h9h10-------------------------------------------------|
|--------------------------------------------------------|

|-----------------------------14---15/17~~~~~~~~~~--|
|--------14-15-14----14-15-17---15------------------|
|-/14-16-----------16-------------------------------|
|---------------------------------------------------|
|---------------------------------------------------|
|---------------------------------------------------|

Remember to play it with emotion..
If you know the whole song, kindly post it here at Ultimate-Guitar.com
Enjoy!

ramstormrage@gmail.com

Sharan Q Official Website (japanese)
http://www.sharam-q.com/
Related for Single Bed tab