Song name
# A B C D E F G H I J K L M N O P Q R S T U V W X Y Z

Shawn Lane - Gray Pianos Flying tab

                                                                      Shawn Lane
Lead Guitar
     W                   W                   E.  S E  S S E  E  E  E   
E||-------------------|-------------------|---------------------------|
B||-------------------|-------------------|--7----------7-L--9-----7--|
G||-------------------|-------------------|------6--------------------|
D||-------------------|-------------------|--------8--L---------8-----|
A||-------------------|-------------------|---------------------------|
E||-------------------|-------------------|---------------------------|
 
 
  S  S S S S E  S S S S S E  E     Q    Q    Q    Q     
--------------------------------|----------------------|
--6h-7-6-----6------------------|----------------------|
---------8-L----6---8-----6-----|----------------------|
------------------8---8-8----8--|----------------------|
--------------------------------|--9-------------------|
--------------------------------|----------------------|
 
 
  Q    Q    Q      Q          E  S  S S S S  S  E   E  E   E   
-------------------------|------------------------------------|
-------------------------|------------------------------------|
-------------------------|--/11--8----------11--L---------11--|
-------------------------|---------11---8----------11--8------|
-----------------/13\----|------------------------------------|
-------------------------|------------------------------------|
 
 
      E.  S S  E   S  S S E   E  E         E  S E  E  E.   E  E      S  S  
------------------------------------|-------------------------------------|
------------------------------------|-------------------------------------|
--10g11---8-L-10--------8-----------|--10g11--8-L-------------------------|
------------------11--L---8--11--8--|--------------9--8~------8--10g11-13-|
------------------------------------|----------------------9--------------|
------------------------------------|-------------------------------------|
 
 
   E.  E  E   E.     E   E   E      E.   S    S  E.    E.    E     E.    
--------------------------------|---------------------------------------|
--------------------------------|---------------------------------------|
------------------------13------|--11---13br--L-11~---10----11----13----|
--11---9--8--------/11------11--|---------------------11---(13)--(15)---|
-------------11~----------------|---------------------------------------|
--------------------------------|---------------------------------------|
 
 
   E   S  E   E.   E.    E   E.   
---------------------------------|
------14----------14b------------|
--13-----13-------------15--13---|
-------------16------------------|
---------------------------------|
---------------------------------|
 
 
               |---3---|        |--3-|           
   H           S   S   S  S  S  E    S     S  S  
--14br--------11h-14p-11------------------------|
-------------------------14-11-14b--------------|
------------------------------------13pbr--L-11-|
------------------------------------------------|
------------------------------------------------|
------------------------------------------------|
 
 
   S  S  S   S  Q      S  S  T  T  S  E   T   T   T   T  
-------------------------11-----------------------------|
------------11-14~-----L----14-11-----------------------|
-----11-13b-----------------------13--L---Lp-11h--------|
--13---------------------------------------------13p-11-|
--------------------------------------------------------|
--------------------------------------------------------|
 
 
                                  SH      
  E      E   E   E   E.    S  S   E   S   
-----13g14-------------------------------|
------------15--14--14~------------------|
--------------------------11--L-<>9--11~-|
--x--------------------------------------|
-----------------------------------------|
-----------------------------------------|
 
 
   Q     E   E  E.   S  E  T   T  T   T   
-----------------------------------------|
--------12--10--9------------------------|
---L----------------11--L--9h------------|
------------------------------11p-9h-----|
-------------------------------------12h-|
-----------------------------------------|
 
 
                |---3--|           |---3--|                             
  Q      E   E  S   S  S  S S S S  S   S  S      E  E  H         Q      
---------------------------------------------|-------------------------|
--------12--10--9h-10p-9---------------------|-------------------------|
-------------------------11-9-------------9h-|--11---------------------|
--------------------------------7h-9h-12h----|-------------------------|
--9~-----------------------------------------|-------------------------|
---------------------------------------------|------------------14\----|
 
 
   E  S S S S S S S S S  S E  E       E.   S S S S E.   E  E  E   
---------------------------------|-------------------------------|
--/7--6-----6--------------------|--<>7~-----------7~---------7--|
--------8-------6-L-8------6-----|---------6------------6--------|
----------------------8h-9----8--|-------------8-----------8-----|
---------------------------------|-------------------------------|
---------------------------------|-------------------------------|
 
 
    E.  S S S S E   S S  S E  E   
---------------------------------|
--6g7-------6--------------------|
--------8-------6~--8------6-----|
----------------------8h-9----8--|
---------------------------------|
---------------------------------|
 
 
    TH  TH  TH  TH    TH  TH  TH  TH  TH  TH  TH  TH  TH  TH  TH 
    S   S   S   S S   S   S   S   S   S   S   S   S   S   S   S  
----------------------------------------------------------------|
--------------<>2-L-----------------------------<>7-------------|
----------<>3-----------<>3-----------------<>7-----<>7---------|
------<>4-----------<>4-----<>4-----<>7-<>7-------------<>7-----|
--<>4---------------------------<>5-------------------------<>5-|
----------------------------------------------------------------|
 
 
    TH   TH  TH   TH   TH   TH  TH   TH  TH   TH  TH   TH   TH   TH  TH   TH 
    S    S   S    S    S    S   S    S   S    S   S    S    S    S   S    S  
----------------------------------------------------------------------------|
----------------------------------------------------------------------------|
------<>15-----<>15-<>15-<>15-----<>15-----<>15-----<>15-<>15-<>15-----<>15-|
-----------<>6----------------<>6---------------<>6----------------<>6------|
---------------------------------------<>6----------------------------------|
--<>4-----------------------------------------------------------------------|
 
 
    TH  TH  TH  TH  TH  TH  TH  TH  TH  TH  TH  TH  TH  TH  TH  TH 
    S   S   S   S   S   S   S   S   S   S   S   S   S   S   S   S  
------------------------------------------------------------------|
--------------<>4-<>4-<>4-----<>4-------------<>4-<>4-<>4---------|
----------<>4-------------<>4-------------<>4-------------<>4-----|
------<>4-----------------------------<>4---------------------<>4-|
--<>2-----------------------------<>2-----------------------------|
------------------------------------------------------------------|
 
 
    TH  TH  TH  TH  TH  TH  TH  TH  TH  TH  TH  TH  TH  TH  TH  TH 
    S   S   S   S   S   S   S   S   S   S   S   S   S   S   S   S  
------------------------------------------------------------------|
--------------------------------------------------<>7-------------|
----------------------<>3---------------------<>7-----<>7---------|
------------------<>4-----<>4---------<>7-<>7-------------<>7-----|
----------<>4-<>4-------------<>4-<>5-------------------------<>5-|
--<>2-<>2---------------------------------------------------------|
 
 
    TH  TH  TH  TH  TH  TH  TH  TH  TH  TH  TH  TH  TH  TH  TH  TH 
    S   S   S   S   S   S   S   S   S   S   S   S   S   S   S   S  
------------------------------------------------------------------|
--------------------------<>4-------------------------------------|
--------------<>5-<>5---------<>5-----<>5-<>5-----<>5-------------|
----------<>6---------<>6---------<>6---------<>6-----<>6---------|
------<>6-------------------------------------------------<>6-----|
--<>4---------------------------------------------------------<>4-|
 
 
    TH  TH  TH  TH  TH  TH  TH  TH  TH  TH   TH                           
    S   S   S   S   S   S   S   S   S   E    S Q       H        H         
----------------------------------------------------|--------------------|
-----------------------------------------------4----|--L-----------------|
--------------<>4-<>L-----<>4-<>4-----<>4------4----|--L-----------------|
----------<>4---------<>4---------<>4------<>4------|--------------------|
------<>2-------------------------------------------|--------------------|
--<>2-----------------------------------------------|--------------------|
 
 
           |---3--|   |---3---|                                  |-------5----- 
  E.   S   S  S   S   S   S   S  T   T   T   T   T   T   T   T   S   S   S   S  
----------------------------------------------------------------------------14h-
----------------------------------------------------------------11h-14h-16h-----
--------------------------------11h-------------14p---------13h-----------------
------------------------------------12h-13h-16p-----13h-16h---------------------
------11h--L-13h-16p-11h-13h-16-------------------------------------------------
--------------------------------------------------------------------------------
 
 
      H         H           W                 
--16g18~-----------------|-------------------|
-------------------------|-------------------|
-------------------------|-------------------|
-------------------------|-------------------|
-------------------------|-------------------|
-------------------------|-------------------|
 
 
      Q.       S   S   S   S   S   S   S  S   S   S  
----------------------------------------------------|
--14g16p------14p-12s-11h-12p-11h-12p-11------------|
-----------------------------------------13s-15s-13-|
----------------------------------------------------|
----------------------------------------------------|
----------------------------------------------------|
 
 
   S  E.    Q.       Q     E     Q    Q    Q    E  S  S     W                  
------------------------------|-------------------------|---------------------|
------------------------------|-------------------------|--14b----------------|
--11--------------------------|----------------------11-|---------------------|
-----13b---11~-------L----13--|-------------------------|---------------------|
------------------------------|-------------------------|---------------------|
------------------------------|-------------------------|---------------------|
 
 
   S   S   S  S  H         E.   S     E.   E.   E   Q.       S   S  
----------------------------------|--------------------------------|
----------------------------------|----------------14p------12p-11-|
--11--11--------------------------|--------------------------------|
--11h-13p-11----------------------|------------16------------------|
-------------14--L--------14---14-|--13---16-----------------------|
----------------------------------|--------------------------------|
 
 
   Q.      S   S  Q      S  S  T   S T    H         S  S E  E  S S  
---------------------------------------|---------------------------|
---------------------------------------|---------------------------|
--10------11h-13-----------------------|--------------------3----3-|
-----------------11~-----L-13----------|-----------------------6---|
------------------------------11s-13-x-|--9~--------Ls-7-----------|
---------------------------------------|---------------------------|
 
 
  S S S S S S S S H            E   S  E   S  S  E   E   E   S  S  S  
----------------------------|---------------------------------------|
----------------------------|------------------------------------14-|
----------------------------|--------------------------15-----16----|
--4---3---3-----------------|------------------15--16------16-------|
----6---4---4---------------|--------14-----16----------------------|
--------------6-4-4/--------|-----14-----14-------------------------|
 
 
   S  S  E   H        Q     
--14-14--------------------|
--------18---L-------------|
---------------------------|
---------------------------|
---------------------------|
---------------------------|
 
 
                             |---3--|                      
  S  S   S  S   S  S   S  S  S   S  S   S  S   S  S  S  S  
-----------21s-18--------16-------------------------------|
----18s-21--------18s-16----18p-16------------------------|
-----------------------------------18s-19--------18-------|
------------------------------------------20s-18----18----|
-------------------------------------------------------20-|
----------------------------------------------------------|
 
 
   S  S  T   T   T   T  S  S  S  S  Q     Q      
------------------------------------------------|
------------------------------------------------|
------------------------------------------------|
-----18-16h-18p-16s-15----15--------------------|
--18-------------------18----16-18-14-----L~----|
------------------------------------------------|
 
 
                                         |---3---|                            
   S  E.   E   E    S  E   S  Q          E   E   E   S     S  E   Q.      E   
-------------------------------------|--------------14-18g21-16---L----------|
-------------------------------------|----------14---------------------------|
----------15---L~---L----------------|------15-------------------------------|
----------------------16-----15br----|--16-------------------------------13--|
-----16-------------------16---------|-----------------------------------13--|
--14---------------------------------|---------------------------------------|
 
 
   S   E.    E   E   S   E   S     T  S T  E   
----------------------------------------------|
----------------------------------------------|
--11s-13s---11------11---L--11----------------|
--11s-13s---11------11h-13--------------------|
----------------13-------------13g13-11-9-----|
------------------------------------------11--|
 
 
  S  S   S  S  S  S  S   S  Q.      S   S  
------------------------------------------|
------------------------------------------|
--------------------11b-------------------|
-----------11-11-13-----13--L------11h-13-|
--9-11s-13--------------------------------|
------------------------------------------|
 
 
   S  S   E    E.   S  S  S    S.  T  S  S  S  S  
-------------------------------------------------|
-----14b--L~---L----L-14----------------------11-|
--11---------------------13br--Lp-11----11-11----|
-------------------------------------13----------|
-------------------------------------------------|
-------------------------------------------------|
 
 
           -\1                      
   E.   S  E    E   Q     E   S  S  
--14---13--Lp--11------------------|
-------------------14-----L--11--L-|
-----------------------------------|
-----------------------------------|
-----------------------------------|
-----------------------------------|
 
 
                                             |---3--|       
  E.  S   T  S.  S  S  S  S      T   T  T  T S   S  S  S S  
------9h-11p-9---------------------------------------------|
----------------11-10p-9-----------------------------------|
-------------------------11h-10g11p-10p-8----8h-10p-8----8-|
------------------------------------------11----------11---|
-----------------------------------------------------------|
-----------------------------------------------------------|
 
 
  S S  S  S S S  S S  S   S  S  S  S  S  S   S  
-----------------------------------------------|
----------------------------------------14-----|
----------------------------------11----13s-15-|
--9-9p-8----8---------------11-13----13--------|
---------11---9------11h-12--------------------|
----------------11-9---------------------------|
 
 
   S  S  S     S  H         E.    S  
------------------------------------|
-----14-----------------------------|
---L----11--------------------------|
-----------13g15-11~-------------/6-|
------------------------------------|
----------------------------9\------|
 
 
   Only pick where shown, the rest is legato                                    
   |----------------------3----------------------|  |---3--|  |--3--|           
   S                                         S   S  S  S   S  S S   S  T   T T  
--------------------------------------------------------------------------------
--------------------------------------------------------------------------------
----------------------------------------------------------------8h-10--------8h-
--11-----------------------------------------------11--------11-------11p-10----
--------------------------------------------11h-13----11h-13--------------------
--------------------------------------------------------------------------------
 
 
  |-3-|    |--3--|      |-3|  |--3--|  |--3-|  |--3-|  
  S S S E  S  S  S  E   E  S  S  S  S  S S  S  S S  S  
------------------------------------------------------|
------------------------------------------------------|
-----------------------10--8-------------8-11----8-10-|
-----------6----11-----------11-11-10-11------11------|
-------------11----11---------------------------------|
--7-6-7-4---------------------------------------------|
 
 
           |--3--|  |--3--|                 |-----5-----|                       
  T  T  T  S  S  S  S  S  S  T  T  T  T  T  T  T  T  T  T  T  T  T  T  T  T  S  
--------------------------------------------------------------------------------
----------------------------------------------------11-12-14-12-11----11-------1
----------10-13-11-10-11----10-------10-11-13-11-14----------------13----12-13--
--x-11-13----------------13----11-13--------------------------------------------
--------------------------------------------------------------------------------
--------------------------------------------------------------------------------
 
 
   |-----5-----|              |---3---|                                         
   T  T  T  T  T  S  T  T  T  X   X   X  T   T  T  T  T  T  T  T  T  T  T  T  T 
-----11-13-14-13-11----11---------------11h-13-14-13-14-13-11-------13-11-------
--14----------------14----14-11h-12h-14-----------------------14-13-------14-11-
--------------------------------------------------------------------------------
--------------------------------------------------------------------------------
--------------------------------------------------------------------------------
--------------------------------------------------------------------------------
 
 
               |--3--|                       |--3--|                          |-
   T  T  T  T  T  T  T  T  T  T  T  T  T  S  T  T  T  T  T  T  T  T  T  T  T  T 
--------16-14-16-14-13-18-16-14-------18-16-18-16-14-19-18-16-------21-21-21-21-
--16-14-------------------------18-14-------------------------19-17-------------
--------------------------------------------------------------------------------
--------------------------------------------------------------------------------
--------------------------------------------------------------------------------
--------------------------------------------------------------------------------
 
 
   H          E  E   Q        Q    Q    Q    Q       Q    Q    Q    Q     
--21~---------L------------|----------------------|----------------------|
---------------------------|----------------------|----------------------|
---------------------------|----------------------|----------------------|
---------------------------|----------------------|----------------------|
-----------------x--16s----|--2-------------------|----------------------|
---------------------------|----------------------|----------------------|
 
 
  Q    Q    E   E   S   S  E      E   S  S  S  E.   E.    S  S  E.    
------------------------------|--------------------------------------|
------------------------------|------14------------14b---------------|
---------------10--11s-13-13--|--13-----13--L-11---------15--L-13~---|
---------------11--13s-15-15--|--------------------------------------|
------------------------------|--------------------------------------|
------------------------------|--------------------------------------|
 
 
   E   S  S  E   E   E.   S   S  E   S     E  E  E  E   Q    E.   S   
------13-14-11-------------------------|-----------------------------|
----------------14--14---14~--L--------|-----------------------------|
---L----------------------------11--10-|--11-------------------------|
---------------------------------------|---------9--8----------------|
---------------------------------------|------9--------11----L---(0)-|
---------------------------------------|-----------------------------|
 
 
  S  S   E   E      E   S   S  E   S  S  S  S  
--------14-------------21p-17-21-----17----17-|
----17b-----17pbr---L-------------19----19----|
----------------------------------------------|
----------------------------------------------|
----------------------------------------------|
----------------------------------------------|
 
 
                                              |---3--|     |--3--|     |------5 
   S. T  T   T  T  T   T  T    S  T  T  T  T  S   S  S     S  S  S     T   T  T 
--16-14--------14--------------------------------14----------14-----------------
--------17p-14----17p-14---------17-14-17-14------------------------------------
-------------------------16br--L-------------16b----16pbr--L----16pbr--Lp-14----
-----------------------------------------------------------------------------16-
--------------------------------------------------------------------------------
--------------------------------------------------------------------------------
 
 
                                                                               |
   T  T   S   S   S T  T   T   T   T   T  T   T   T   T   T   T  T  T  T   T   S
--------------------------------------------------------------------------------
--------------------------------------------------------------------------------
----------------------------------------------------------------16----19p-18p-14
-----14h-16p--Ls-12----------------------16p-12h-14h-16p-12h-14----18-----------
--14----------------------------------------------------------------------------
----------------------14h-17p-14h-17h-19----------------------------------------
 
 
                              PM                            
   |--3--|                                                  
   S  S  S E  H.              E  S S S E  S S S S S S S E   
--14-17-21-----------------|-------------------------------|
---------------------------|--7--7-----6-------------------|
---------------------------|-------8------6-L-8-----6-6----|
---------------------------|--------------------8-8-----8--|
---------------------------|-------------------------------|
---------------------------|-------------------------------|
 
 
  E.  S S S S E.   E  E  E       E.  E  E  E  S S  S  E  E   
----------------------------|-------------------------------|
--7-----------7~---------7--|--6g7------6-------------------|
------6------------6--------|--------6-----6--8---(8)-6-----|
----------8-----------8-----|-------------------8--------8--|
----------------------------|-------------------------------|
----------------------------|-------------------------------|
 
 
  S S S S S S S S S S S S S S S S    S S S S S S S S S S S S S S S S  
----------------------------------|----------------------------------|
----------------------------------|----------------------------------|
--------3-----------3-----3---3---|----3---3-------3---3---3---3---3-|
----------------------------------|----------------------------------|
--1-1-1---1-1-1-1-1---1-1---1---1-|--2---2---2-2-2---2---2---2---2---|
----------------------------------|----------------------------------|
 
 
  W                   H        Q    E   E      E  S S S E  S S S S S S S S S  
-------------------|------------------------|-----------2------------4-------|
-------------------|------------------------|-------2-L----------------4-----|
-------------------|------------------------|-----3--------------4-------4---|
-------------------|------------------------|--4-----------4-L-4---4-------4-|
-------------------|------------------------|--------------2-L---------------|
-------------------|-------------------14\--|--2-----------2-L---------------|
 
 
  S  S S S S S  S  S S S S S  S  S S S    S S S S S S S S S S S S S S S S  
---------------------------------------|------------2-L-----------2-------|
---------5---------------6-------7-----|--------2-L-2-L-------4-4-----4---|
--4----4---4---------------6-------6---|--------3-L-----3-----4-----4-----|
--4h-6-------6-(4)-6-L-6------6------6-|------4-------------4-----------4-|
-------------------4-L-4-----(4)-------|----4-------------2---------------|
---------------------------------------|--2-------------------------------|
 
 
    S S S S S S S S  S  S S S S S E   
-------------------------------------|
----------5-L---5---------6---7------|
----4-L-4-4-L-4-------------6---6----|
--4g6-L-----------4--6--6---------6--|
--------------------(4)--------------|
-------------------------------------|
 
 
          |---5---|                  |-3-|                    |----5----|  
  T T T T T T T T T T T T T T T T T  S S S  T T T T T  T T  T T  T T T  T  
----9-7-7-6-----9-7-6-----9-7-6-----11-9-7--------9-7------11-9-11-9-7-11-|
------------9-7-------9-6-------9-6--------11-9-------11-7----------------|
------------------------------------------------8-------------------------|
--------------------------------------------------------------------------|
--------------------------------------------------------------------------|
--------------------------------------------------------------------------|
 
 
   |--6-|  |--6-|                    |--6-|                                     
   T  T T  T  T T  T  T  T  T  T  T  T  T T  T T  T  T  T T  T  T  T  T T  T S  
--12-11-9---------12-11-12-11-------12-11-9------13-13-11-9-------13-11-9------1
----------12-11-9-------------12-11---------12-9------------13-11---------13-9--
--------------------------------------------------------------------------------
--------------------------------------------------------------------------------
--------------------------------------------------------------------------------
--------------------------------------------------------------------------------
 
 
                                          |--6--|                          |--6 
      S  T  T  T  T  T  T  T  T  T  T  T  T  T  T  T  T  T  T  T  T  T  S  T  T 
--16g18-16-14-------18-16-18-16-14----18-18-16-14-------19-19-18-16-14----19-18-
--------------18-14----------------18-------------18-15----------------16-------
--------------------------------------------------------------------------------
--------------------------------------------------------------------------------
--------------------------------------------------------------------------------
--------------------------------------------------------------------------------
 
 
               |--6--|  |--6--|  |--6--|         |--6--|              |--6--|  |
   T  T  T  T  T  T  T  T  T  T  T  T  T  T  T   S  S  S  T  T  T  T  T  T  T  T
--21-21-19-18----------21-19-18-------------19s-21-21-19-21-19-18---------------
--------------21-19-17----------21-19-17--L-----------------------21-17-16-19-17
--------------------------------------------------------------------------------
--------------------------------------------------------------------------------
--------------------------------------------------------------------------------
--------------------------------------------------------------------------------
 
 
   S  S  S  S Q    Q    Q       W                  
-----------------------------|-------------------||
-----------------------------|-------------------||
-----------------------------|-------------------||
--16-16-16-16----------------|-------------------||
-----------------------------|-------------------||
-----------------------------|-------------------||
Tap to rate this tab
# A B C D E F G H I J K L M N O P Q R S T U V W X Y Z