Song name
# A B C D E F G H I J K L M N O P Q R S T U V W X Y Z

She And Him - In The Sun tab



                             -SHE & HIM-

                             In the sun


       Intro riff:

         G              C
     e]-----7-7--5------5-7-5-------5----             --7---|
     b]------------8----------8-------8---------------------|
     g]--------------8----------8--------   x 4-------------|
     d]-----------------------------------------------------|
     a]-----------------------------------------------------|
     e]-----------------------------------------------------|

            Rythm guitar plays:     G    C   X 4

   Verse:


             G                 C
             It's hard to be ignored
                     Em                       G
             When I look at you, you look so bored
                 C        Cm
             My baby, my darling
                     Em         A                 D
             I've been taking a beating

    Chorus:

                       G
              Well alright

                    C
              It's okay

                  Em                         A
              We all get the slip sometimes everyday

                         Em           A           Am          D
              I'll just keep it to myself in the sun, in the sun

                  (Intro riff)x 4

    Verse:
                     G                 C
               It's hard to take the blame

                       Em                       G
               When I look at you, you're so ashamed

                   C         Cm
               My baby, my darling

                      Em               A
               I've been thinking of leaving


     Chorus:


                         G
               Well alright

                    C
               It's okay

                  Em                         A
               We all get the slip sometimes everyday

                         Em            A          Am           D
               I'll just keep it to myself in the sun, in the sun


                         G
               Well alright

                    C
               It's okay

                  Em                           A
               We all feel ashamed sometimes everyday

                         Em            A          Am           D
               I'll just keep it to myself in the sun, in the sun


     Instrumental:

     Rythm guitar plays:    G     C      (LIKE THE INTRO)

     e]-------------------|
     b]--------------0----|
     g]------0------------|  X 5
     d]--0h2-----0h2------|
     a]-------------------|
     e]-------------------|


     Then play really fast:


     e]---------                   ----------|
     b]---------                   -----0----|
     g]------0--   x 5             ----------|  X 5
     d]--0h2----                   -0h2------|
     a]---------                   ----------|
     e]---------                   ----------|
               Play both things twice

     After that:

     e]------5----5----5----5----5--|
     b]---3h5--3h5--3h5--3h5--3h5---|
     g]-----------------------------| x 2
     d]-----------------------------|
     a]-----------------------------|
     e]-----------------------------|


     e]-------10-----10------10------10------10----|
     b]--10h12--10h12---10h12---10h12---10h12------|
     g]--------------------------------------------| x 3
     d]--------------------------------------------|
     a]--------------------------------------------|
     e]--------------------------------------------|


     e]-------15------15------15------15------15---|
     b]--15h17---15h17---15h17---15h17---15h17-----|
     g]--------------------------------------------|     End.
     d]--------------------------------------------|
     a]--------------------------------------------|
     e]--------------------------------------------|
Tap to rate this tab
# A B C D E F G H I J K L M N O P Q R S T U V W X Y Z