Song name
# A B C D E F G H I J K L M N O P Q R S T U V W X Y Z

She And Him - Brand New Shoes tab

I haven't been able to find a tab for this song, so I decided to try myself. Enjoy 
playing this amazing song.

Drop bottom E to C.

Intro/Verse:
e|---------------------------------------------------------------------------|
B|---0-0---------------------------------------------------------------------|
G|---0-0----0-0----2-2----4-4------------------------------------------------|
D|----------0-0----2-2----4-4------------------------------------------------|
A|---------------------------------------------------------------------------|
C|-7------4------0------2----------------------------------------------------|

Chorus:
e|---------------------------------------------------------------------------|
B|---0-0------------------0-0---0-0---0-0---0-0------------------------------|
G|---0-0----0-0----2------0-0---0-0---0-0---0-0------------------------------|
D|----------3-3----2---------------------------------------------------------|
A|---------------------------------------------------------------------------|
C|-7------7------0-------9-----9-----9-----9---------------------------------|

Bridge:
e|---------------------------------------------------------------------------|
B|---0-0----0-0----0-0----0-0------------------------------------------------|
G|---0-0----0-0----0-0----0-0----2-2---2-2----4-4----4-4---------------------|
D|-------------------------------2-2---2-2----4-4----4-4---------------------|
A|---------------------------------------------------------------------------|
C|-4------3------2------1------0-----0------2------2-------------------------|

Outro:
e|---------------------------------------------------------------------------|
B|---0-0-----------1-1----0-0----------0--0----------------------------------|
G|---0-0---0-0-----0-0----0-0-------0----------------------------------------|
D|---------0-0-------------------0------7------------------------------------|
A|---------------------------------------------------------------------------|
C|-7------4------0------2------7---------------------------------------------|
Tap to rate this tab
# A B C D E F G H I J K L M N O P Q R S T U V W X Y Z