Song name
# A B C D E F G H I J K L M N O P Q R S T U V W X Y Z

She And Him - The Christmas Waltz tab

+++++++++++++++++++++++++++
| She & Him- The Christmas Waltz |
+++++++++++++++++++++++++++


"Painted candy canes on the tree…"

Tuning: Standard EADGBe

Chords:

Em7b5:   010030    or   x7878x
G:             320003
G6:           320000
G7:           320001
A7:           x02020
C:             x32010
Cmaj7:    x32000
Dm7:       xx0211
D7sus2:  xx0210


"Frosted windowpanes…"
1.
e|---------------------------------------------------------1-1-----0-0-----------------|
B|----1-1----2-2-----1-1----0-0-----1-1----2-2----1-1-----0-0--------------------------|
G|----0-0----0-0-----2-2----0-0-----0-0----0-0----2-2-----0-0--------------------------|
D|-------------------0----------------------------------0------------------------------|
A|--3------0-------------------------3-------0-----------------------------------------|
E|----------------------------3----------------------------------3---------------------|
      C        A7      Dm7   G          C        A7        Dm7   G6

"Santa's on his way…"
2.
e|---------------------------------------------------------1-1----1-1-----------|
B|----1-1----1-1-----1-1-----0-0----0-0----0-0----1-1----0-0--------------------|
G|----0-0----0-0-----2-2-----0-0----0-0----0-0----2-2----0-0--------------------|
D|-------------------0----------------------------------0-----------------------|
A|--3----------------------------------3----------------------------------------|
E|----------3-----------------3----------------3---------------3----------------|
      C        C          Dm7   G         Cmaj7            Dm7  G7

"Its that time of year…"
3.
e|------------------------------0-0-----------------------1-1----1-1-------------------|
B|----1-1----2-2-----1-1----0-0-----1-1----2-2----1-1-----0-0--------------------------|
G|----0-0----0-0-----2-2----0-0-----0-0----0-0----2-2-----0-0--------------------------|
D|-------------------0----------------------------------0------------------------------|
A|--3------0-------------------------3-------0-----------------------------------------|
E|----------------------------3----------------------------------3---------------------|
      C       A7         Dm7  G6       C         A7        Dm7   G7

"Merry Christmas…."
4.
e|-------------------------------------------------------------------------|
B|----1-1----1-1-----1-1-----0-0---------------8-8----2-2-2----------------|
G|----0-0----0-0-----2-2-----0-0------7--7---7-7----0-0-0------------------|
D|-------------------0-----------------------8-----------------------------|
A|--3-----------------------------------/7-------7-------0-----------------|
E|----------3-----------------3--------------------------------------------|
      C                     Dm7   G           Em7b5           A7

"And this song of mine…"
5.
e|-----1-1----1-1----------------------0-0-------------------------------------------|
B|-----1-1----0-0----1-1-----2-2----1-1----------------------------------------------|
G|-----2-2----0-0----0-0-----0-0----2-2----------------------------------------------|
D|--0----------------------------------0---------------------------------------------|
A|--------------------3-------0------------------------------------------------------|
E|-----------3--------------------------------------3--------------------------------|
      Dm7   G7      C         A7        D7sus2

Please rate thanks!


Lyrics:

Frosted window panes
Candles gleaming inside
Painted candy canes on the tree
Santa's on his way,
He's filled his sleigh
With things, things for you and for me

It's that time of year
When the world falls in love
Every song you hear
Seems to say
Merry Christmas
May your New Year dreams come true
And this song of mine
In three quarter time
Wishes you and yours
The same thing too


++++++
| Raileff |
++++++
Tap to rate this tab
# A B C D E F G H I J K L M N O P Q R S T U V W X Y Z