Song name
# A B C D E F G H I J K L M N O P Q R S T U V W X Y Z

Shed Seven - Getting Better tab

Getting Better

Check with record for timings

Intro and verse riff (how Joe Johnson played live)

e--------------5-5-5-5-       -0-0---------------------|
B--------------5-5-5-5-       -1---1-------------------|
G--------------7-6-7-7-   x3  -0-----0-----------------|
D--------------7-7-7-7-       -2-----------------------|
A--2-2-2-2-2-2-5-7-5-5-       -3-------3-3-2-2-0-0-----|
E--0-0-3-0-3-0---5-5-5-       ---------------------3-0-|

Chorus

Lead in by playing E5 for a few strums:

e---
B---
G---
D-2-
A-2-
E-0-

e-0-------0-------0-0-3--------------------------2---|
B-0---0-----0---0-0-0-3----------------------------3-|
G-1-----1-----1---1-1-0-----------0------------------|
D-2-2-------------2-2-0---------0---0----------0-----|
A-2-------------------2---2-3-5(hold)-5-3-2-0--------|
E-0-------------------3-3----------------------------|

e-3-2---2-2-----------------|
B-----3-3-3-2-2-2-2-3-3-3-2-|
G-------2-2-2-2-2-2-2-2-2-2-|
D-------0-0-2-2-2-2-2-2-2-2-|
A-----------0-0-0-0-0-0-0-0-|
E---------------------------|

After repeat:

e-0-0---------------------|
B-1---1-------------------|
G-0-----0-----------------|
D-2-----------------------|
A-3-------3-3-2-2-0-0-----|
E---------------------3-0-|

Solo (not completely correct):

e-------------------|
B-------------------|
G-2b4r2-0-------0-2-|  x4
D---------2-0h2-----|
A-------------------|
E-------------------|

e------------------------------|
B------------------------------|
G------------------------------|
D-2-2-4-4-5-5-5\0-5-5--7-7-9-9-|
A------------------------------|
E------------------------------|

e-0-0-2-2-0-0-0-0-|
B-0-0-3-3-0-0-2-2-|
G-1-1-2-2-1-1-2-2-| x2
D-2-2-0-0-2-2-2-2-|
A-----------------|
E-----------------|

Any comments? Suggestions?
Email me at jamesdfoster@hotmail.co.uk
Tap to rate this tab
# A B C D E F G H I J K L M N O P Q R S T U V W X Y Z