Song name
# A B C D E F G H I J K L M N O P Q R S T U V W X Y Z

Sheila On 7 - Melompat Lebih Tinggi tab

This is my first tab !! \m/
By:Gaz Afron

e|---------9-7------------9-11-9---------------------|
B|-----7--------11-9-11------------11-9--9p7---------|
G|---------------------------------------------------|
D|---------------------------------------------------|
A|---------------------------------------------------|
E|---------------------------------------------------|


e|---------9-7------------9-14-9---------------------|
B|-----7--------11-9-11------------11-9--9p7---------|
G|---------------------------------------------------|
D|---------------------------------------------------|
A|---------------------------------------------------|
E|---------------------------------------------------|


e|---------9-7------------9-11-9---------------------|
B|-----7--------11-9-11------------11-9--9p7---------|
G|---------------------------------------------------|
D|---------------------------------------------------|
A|---------------------------------------------------|
E|---------------------------------------------------|


e|---------9-7------------9-14-9---------------------|
B|-----7--------11-9-11------------11-9--9p7---------|
G|---------------------------------------------------|
D|---------------------------------------------------|
A|---------------------------------------------------|
E|---------------------------------------------------|


e|------14---13---11---9/11--------------------------------------|
B|------------------------------13----11-------------------------|
G|-----------------------------------------13----11----9/11------| 2x
D|---------------------------------------------------------------|
A|---------------------------------------------------------------|
E|---------------------------------------------------------------|

e|------------------------------------14-14-14-14---------------|
B|--------------------/11------14-----16-16-16-16---------------|
G|------/11-----13----------------------------------------------|
D|--------------------------------------------------------------|
A|--------------------------------------------------------------|
E|--------------------------------------------------------------|


e|-----------------------------/11----------/15-----------------|
B|------/11---------/15-----------------------------------------|
G|--------------------------------------------------------------| 2x
D|--------------------------------------------------------------|
A|--------------------------------------------------------------|
E|--------------------------------------------------------------|


..\m/..
Keep Enjoy
Tap to rate this tab
# A B C D E F G H I J K L M N O P Q R S T U V W X Y Z