Song name
# A B C D E F G H I J K L M N O P Q R S T U V W X Y Z

Shepherd Kenny Wayne - Blue On Black tab

Help us improve GuitareTab! Take a short survey!
#----------------------------------PLEASE NOTE---------------------------------#
#This file is the author's own work and represents their interpretation of the #
#song. You may only use this file for private study, scholarship, or research. #
#------------------------------------------------------------------------------##

                                  BLUE ON BLACK
                       As recorded by Kenny Wayne Shepherd
                     (From the 1997 Album TROUBEL IS . . .)

Words and Music by Kenny Wayne Sheperd, Tia Sillers & Mark Selby
Transcribed by Troy Nelson

Gtr I (E A D G B E) - 'Untitled'
Gtr II (D A D G B E) - 'Untitled'
Gtr III (D A D G B E) - 'Untitled'

   Intro
    Moderately Slow Q=78
    D5   Csus2 D5  CsD5N.C.    Cadd9 G/B         G
   4/4
    Gtr I
    Q  E S S S S S S E S S   E E S S E +S  S S S E     S S
||-------------------------|---3-x-x-3-(3)-3-3-3------------||
||o-3--3-3-3-3-3-x-3-3-----|---3-x-x-3-(3)-3-3-3-------0-0-o||
||--2--2-0-0-0-2-x-0-2-----|---0-x-x-0-(0)-0-0-0-------0-0--||
||--0--0-0-0-0-0-x-0-0-----|---2-x-x-0-(0)-0-0-0-------0-0--||
||o------3-3-3-----3---0h2-|-3-3-x-x-2-(2)-2-2-2-----------o||
||-------------------------|---------------------3b3.5------||


   Verse
    D5   Csus2 D5  CsD5N.C.    Cadd9 G/B         G
   4/4
    Gtr I
    Q  E S S S S S S E S S   E E S S E +S  S S S E     S S  8x
||-------------------------|---3-x-x-3-(3)-3-3-3------------||
||o-3--3-3-3-3-3-x-3-3-----|---3-x-x-3-(3)-3-3-3-------0-0-o||
||--2--2-0-0-0-2-x-0-2-----|---0-x-x-0-(0)-0-0-0-------0-0--||
||--0--0-0-0-0-0-x-0-0-----|---2-x-x-0-(0)-0-0-0-------0-0--||
||o------3-3-3-----3---0h2-|-3-3-x-x-2-(2)-2-2-2-----------o||
||-------------------------|---------------------3b3.5------||


   Chorus
    $
    $$
    D5    Csus2 D5  CsD5N.C.    Cadd9     G/B           G
   4/4
    Gtr I
    Q   E S S S S S S E S S   E E    S  S E +S  S S S   E     S S
||--------------------------|---3----x--x-3-(3)-3-3-3--------------||
||o-3---3-3-3-3-3-x-3-3-----|---3----x--x-3-(3)-3-3-3---------0-0-o||
||--2---2-0-0-0-2-x-0-2-----|---0----x--x-0-(0)-0-0-0---------0-0--||
||--0---0-0-0-0-0-x-0-0-----|---2----x--x-0-(0)-0-0-0---------0-0--||
||o-------3-3-3-----3---0h2-|-3-3----x--x-2-(2)-2-2-2-------------o||
||--------------------------|---------------------------3b3.5------||
|
|   Gtr II
|   PM--|
|   E E Q     S E   S E S S   E S S +E    E +Q        a Q
||--------------------------|--------------------------------------||
||o-------------------------|-------------------------------------o||
||--------------------------|-----0-(0)----------------------------||
||------0-------0-----0-----|---2----------------------------------||
||o---0-------3-----3---0h2-|-3-----------2-(2)-------------------o||
||--0-----------------------|-------------------------3s5----------||


  D5                             Cadd9     G/B           G
  E.   S +E  E +Q      E S S   E S S  S  S E +S  S S S   Q
|----------------------------|---3-3--x--x-3-(3)-3-3-3----------|
|-3----3-(3)-3-(3)-----3-----|---3-3--x--x-3-(3)-3-3-3----------|
|-2----2-(2)-2-(2)-----2-----|---0-0--x--x-0-(0)-0-0-0----------|
|-0----0-(0)-0-(0)-----0-----|---2-2--x--x-0-(0)-0-0-0----------|
|------------------------0h2-|-3-3-3--x--x-2-(2)-2-2-2----------|
|----------------------------|---------------------------3b3.5--|
|
| PM-----|
| E  E    Q     S  E S E S S   E S S +E    E +Q        a Q
|----------------------------|----------------------------------|
|----------------------------|----------------------------------|
|----------------------------|-----0-(0)------------------------|
|---------0--------0---0-----|---2------------------------------|
|----0----------3----3---0h2-|-3-----------2-(2)----------------|
|-0--------------------------|-------------------------3s5------|


                                            To Coda
                                            To Coda
  A5                             G
  E. S S S E +S  S S S S S S S   S S S S S S E +H
|------------------------------|-3-3-3-3-x-3-3-(3)----|
|------------------------------|-3-3-3-3-x-3-3-(3)----|
|-2--2-2-2-2-(2)-2-2-2-2-2-2-0-|-0-0-0-0-x-0-0-(0)----|
|-2--2-2-2-2-(2)-2-2-2-2-2-2-0-|-0-0-0-0-x-0-0-(0)----|
|-0--0-0-0-0-(0)-0-0-0-0-0-0-0-|-x-x-x-x-x-x-x--------|
|------------------------------|-3-3-3-3-x-3-3-(3)----|
|
| Q.       E +Q        S E   S   S S S S S S E +H
|------------------------------|----------------------|
|----------------------------0-|-0-0-0-0-x-0-0-(0)----|
|-2--------2-(2)-------2-2---0-|-0-0-0-0-x-0-0-(0)----|
|-2--------2-(2)-------2-2---0-|-0-0-0-0-x-0-0-(0)----|
|-0--------0-(0)-------0-0-----|-x-x-x-x-x-x-x-(x)----|
|------------------------------|-5-5-5-5-x-5-5-(5)----|


  D5    Csus2      D5      Csus2 DN.C.
  H         E    S  S  +E   e
|------------------------------------|
|------------------------------------|
|--------------------------10b10.5---|
|---------------12-12-(12)-----------|
|------------------------------------|
|------------------------------------|
|
| Gtr I
| Q   E S S S S  S  S   E   S      S
|------------------------------------|
|-3---3-3-3-3-3--x--3---3------------|
|-2---2-0-0-0-2--x--0---2------------|
|-0---0-0-0-0-0--x--0---0------------|
|-------3-3-3-------3-------0h=====2-|
|------------------------------------|
|
| Gtr II
| PM--|
| E E Q     S E     S   E   S      S
|------------------------------------|
|------------------------------------|
|------------------------------------|
|-----0-------0---------0------------|
|---0-------3-------3-------0h=====2-|
|-0----------------------------------|


    Cadd9                 G/B           G
                                                   ~~~~~
  Q      E     a      +E   +E     e      S      S  S  S
|-------------------------------------------------------|
|-------------------------------------------------------|
|-------------12pb14r(12)-(12)---10-----12-----10-------|
|-------------------------------------------------12-12-|
|-------------------------------------------------------|
|-------------------------------------------------------|
|
| E E    S  S          E   +S  S  S S    E         S  S
|---3----x--x----------3---(3)-3--3-3-------------------|
|---3----x--x----------3---(3)-3--3-3--------------0--0-|
|---0----x--x----------0---(0)-0--0-0--------------0--0-|
|---2----x--x----------0---(0)-0--0-0--------------0--0-|
|-3-3----x--x----------2---(2)-2--2-2-------------------|
|----------------------------------------3b3.5----------|
|
| E S S +E             E   +Q         a  Q
|-------------------------------------------------------|
|-------------------------------------------------------|
|-----0-(0)---------------------------------------------|
|---2---------------------------------------------------|
|-3--------------------2---(2)--------------------------|
|-------------------------------------3s=5--------------|


  D5        Csus2   D5        CDN.C.
    ~~~~~         PM ~~~~~~~~~~
    E   e Q     S S  E    +E   e
|----------------------------------|
|-------------------15---(15)p13---|
|----------------------------------|
|-(12)p10--------------------------|
|----------------------------------|
|-----------------0----------------|
|
| Gtr I
|   Q     E S S S S  S S   E   S S
|----------------------------------|
|---3-----3-3-3-3-3--x-3---3-------|
|---2-----2-0-0-0-2--x-0---2-------|
|---0-----0-0-0-0-0--x-0---0-------|
|-----------3-3-3------3-------0h2-|
|----------------------------------|
|
| Gtr II
|   PM----|
|   E   E Q     S E    S   E   S S
|----------------------------------|
|----------------------------------|
|----------------------------------|
|---------0-------0--------0-------|
|-------0-------3------3-------0h2-|
|---0------------------------------|


    Cadd9                G/B           G
                                                  ~~
  Q      a      +E     e  S   S  e      S      S  E
|-----------------------------------------------------||
|-----------------------------------------------------||
|-------12pb14r(12)---10-12--10-----------------------||
|-------------------------------12-----10-----12-12---||
|-----------------------------------------------------||
|-----------------------------------------------------||
|
| E E            S  S  E +S   S  S S    E         S S
|---3------------x--x--3-(3)--3--3-3------------------||
|---3------------x--x--3-(3)--3--3-3--------------0-0-||
|---0------------x--x--0-(0)--0--0-0--------------0-0-||
|---2------------x--x--0-(0)--0--0-0--------------0-0-||
|-3-3------------x--x--2-(2)--2--2-2------------------||
|---------------------------------------3b3.5---------||
|
| E S S         +E     E +Q          a  Q
|-----------------------------------------------------||
|-----------------------------------------------------||
|-----0---------(0)-----------------------------------||
|---2-------------------------------------------------||
|-3--------------------2-(2)--------------------------||
|------------------------------------3s=5-------------||


 Verse
  D5           Csus2 D5  CsD5N.C.    Cadd9     G/B           G
  Gtr III
    ~~~~
    Q     +Q       H               W
|--------------------------------|--------------------------------------|
|--------------------------------|--------------------------------------|
|--------------------------------|--------------------------------------|
|-(12)---(12)\-------------------|--------------------------------------|
|--------------------------------|--------------------------------------|
|--------------------------------|--------------------------------------|
|
| Gtr I
|   Q      E   S S S S S S E S S   E E    S  S E +S  S S S   E     S S
|--------------------------------|---3----x--x-3-(3)-3-3-3--------------|
|---3------3---3-3-3-3-x-3-3-----|---3----x--x-3-(3)-3-3-3---------0-0--|
|---2------2---0-0-0-2-x-0-2-----|---0----x--x-0-(0)-0-0-0---------0-0--|
|---0------0---0-0-0-0-x-0-0-----|---2----x--x-0-(0)-0-0-0---------0-0--|
|--------------3-3-3-----3---0h2-|-3-3----x--x-2-(2)-2-2-2--------------|
|--------------------------------|---------------------------3b3.5------|
|
| Gtr II
|   PM---|
|   E  E   Q       S E   S E S S   E S S +E    E +Q        a Q
|--------------------------------|--------------------------------------|
|--------------------------------|--------------------------------------|
|--------------------------------|-----0-(0)----------------------------|
|----------0---------0-----0-----|---2----------------------------------|
|------0-----------3-----3---0h2-|-3-----------2-(2)--------------------|
|---0----------------------------|-------------------------3s5----------|


    D5    Csus2     D5  DN.C.   Cadd9     G/B           G
      PM      PM----|
    E E E E   S E   S e E     W                                    3x
||--------------------------|--------------------------------------||
||o-------------------------|-------------------------------------o||
||--------------------------|--------------------------------------||
||------0-------0-----0-----|--------------------------------------||
||o-------------------------|-------------------------------------o||
||----0-------0-----0-------|--------------------------------------||
|
|   Gtr I
|   Q   E S S S S S S E S S   E E    S  S E +S  S S S   E     S S  3x
||--------------------------|---3----x--x-3-(3)-3-3-3--------------||
||o-3---3-3-3-3-3-x-3-3-----|---3----x--x-3-(3)-3-3-3---------0-0-o||
||--2---2-0-0-0-2-x-0-2-----|---0----x--x-0-(0)-0-0-0---------0-0--||
||--0---0-0-0-0-0-x-0-0-----|---2----x--x-0-(0)-0-0-0---------0-0--||
||o-------3-3-3-----3---0h2-|-3-3----x--x-2-(2)-2-2-2-------------o||
||--------------------------|---------------------------3b3.5------||
|
|   Gtr II
|   PM--|
|   E E Q     S E   S E S S   E S S +E    E +Q        a Q          3x
||--------------------------|--------------------------------------||
||o-------------------------|-------------------------------------o||
||--------------------------|-----0-(0)----------------------------||
||------0-------0-----0-----|---2----------------------------------||
||o---0-------3-----3---0h2-|-3-----------2-(2)-------------------o||
||--0-----------------------|-------------------------3s5----------||


    D5    Csus2   D5  CsDN.C.   Cadd9           G/B     G
      PM      PM----|           PM              PM--|
    E E E E   S S S S e E     E E    E    E  S  S S S   e     E    3x
||--------------------------|--------------------------------------||
||o-------------------------|-------------------------------------o||
||--------------------------|--------------------------------------||
||------0-------0-----0-----|--------0----------0-------0----------||
||o-------------------------|-------------------------------------o||
||----0-------0---0-0-------|---0-----------------0-0--------------||
|
|   Gtr I
|   Q   E S S S S S S E S S   E E    S  S E +S  S S S   E     S S  3x
||--------------------------|---3----x--x-3-(3)-3-3-3--------------||
||o-3---3-3-3-3-3-x-3-3-----|---3----x--x-3-(3)-3-3-3---------0-0-o||
||--2---2-0-0-0-2-x-0-2-----|---0----x--x-0-(0)-0-0-0---------0-0--||
||--0---0-0-0-0-0-x-0-0-----|---2----x--x-0-(0)-0-0-0---------0-0--||
||o-------3-3-3-----3---0h2-|-3-3----x--x-2-(2)-2-2-2-------------o||
||--------------------------|---------------------------3b3.5------||
|
|   Gtr II
|   PM--|
|   E E Q     S E   S E S S   E S S +E    E +Q        a Q          3x
||--------------------------|--------------------------------------||
||o-------------------------|-------------------------------------o||
||--------------------------|-----0-(0)----------------------------||
||------0-------0-----0-----|---2----------------------------------||
||o---0-------3-----3---0h2-|-3-----------2-(2)-------------------o||
||--0-----------------------|-------------------------3s5----------||


                                                      D.S. al Coda
    D5    Csus2   D5  CsDN.C.   Cadd9             G/B   G
    PM        PM----|           PM              PM--|
  E S S e E   S S S S e E     E E    e    E  S  S S S   e     E
|---------------------------|--------------------------------------||
|---------------------------|--------------------------------------||
|---------------------------|--------------------------------------||
|-------0-------0-----0-----|--------0----------0-------0----------||
|---------------------------|--------------------------------------||
|---0-0-------0---0-0-------|---0-----------------0-0--------------||
|
|   Gtr I
| Q     E S S S S S S E S S   E E    S  S E +S  S S S   E     S S
|---------------------------|---3----x--x-3-(3)-3-3-3--------------||
|-3-----3-3-3-3-3-x-3-3-----|---3----x--x-3-(3)-3-3-3---------0-0--||
|-2-----2-0-0-0-2-x-0-2-----|---0----x--x-0-(0)-0-0-0---------0-0--||
|-0-----0-0-0-0-0-x-0-0-----|---2----x--x-0-(0)-0-0-0---------0-0--||
|---------3-3-3-----3---0h2-|-3-3----x--x-2-(2)-2-2-2--------------||
|---------------------------|---------------------------3b3.5------||
|
|   Gtr II
| PM----|
| E E   Q     S E   S E S S   E S S +E    E +Q        a Q
|---------------------------|--------------------------------------||
|---------------------------|--------------------------------------||
|---------------------------|-----0-(0)----------------------------||
|-------0-------0-----0-----|---2----------------------------------||
|---0---------3-----3---0h2-|-3-----------2-(2)--------------------||
|-0-------------------------|-------------------------3s5----------||


  &
  D5       Csus2   D5   CsD5N.C.
  Q   E  S  S  +E     E   Q
|-------------------------------|
|-------------------------------|
|--------------------10---------|
|-------10-12-(12)--------------|
|-------------------------------|
|-------------------------------|
|
| Gtr I
| Q   E  S  S   S  S  S S E S S
|-------------------------------|
|-3---3--3--3---3--3--x-3-3-----|
|-2---2--0--0---0--2--x-0-2-----|
|-0---0--0--0---0--0--x-0-0-----|
|--------3--3---3-------3---0h2-|
|-------------------------------|
|
| Gtr II
| PM--|
| E E Q         S  E    S E S S
|-------------------------------|
|-------------------------------|
|-------------------------------|
|-----0------------0------0-----|
|---0-----------3-------3---0h2-|
|-0-----------------------------|


    Cadd9                G/B          G
            ~~~~~~~~~~~~~~~~~~
  E  a      Q.            +Q.                e
|-----------------------------------------------------|
|-----------------------------------------------------|
|---12pb14r12------------(12)---------------10b10.5---|
|-----------------------------------------------------|
|-----------------------------------------------------|
|-----------------------------------------------------|
|
| E         E     S  S E  +S  S S S   E      S      S
|-----------3-----x--x-3--(3)-3-3-3-------------------|
|-----------3-----x--x-3--(3)-3-3-3----------0------0-|
|-----------0-----x--x-0--(0)-0-0-0----------0------0-|
|-----------2-----x--x-0--(0)-0-0-0----------0------0-|
|-3---------3-----x--x-2--(2)-2-2-2-------------------|
|-------------------------------------3b3.5-----------|
|
| E         S  S +E    E  +Q        a Q
|-----------------------------------------------------|
|-----------------------------------------------------|
|--------------0-(0)----------------------------------|
|-----------2-----------------------------------------|
|-3--------------------2--(2)-------------------------|
|-----------------------------------3s5---------------|


  D5       Csus2       D5    CsD5N.C.
   S  S  e  S  S  E    H
|------------------------------------|
|------------------------------------|
|-12-10----------10\-----------------|
|-------12-12------------------------|
|-------------12---------------------|
|------------------------------------|
|
| Gtr I
|  Q        E     S  S S S S S E S S
|------------------------------------|
|--3--------3-----3--3-3-3-x-3-3-----|
|--2--------2-----0--0-0-2-x-0-2-----|
|--0--------0-----0--0-0-0-x-0-0-----|
|-----------------3--3-3-----3---0h2-|
|------------------------------------|
|
| Gtr II
|  PM------|
|  E     E  Q          S E   S E S S
|------------------------------------|
|------------------------------------|
|------------------------------------|
|-----------0------------0-----0-----|
|--------0-------------3-----3---0h2-|
|--0---------------------------------|


    Cadd9          G/B                      G
    PM    ~~~~~~~          PM
  S S  S  S  +E     S      S  e     S  S  a  S      S  S S
|----------------------------------------------------------||
|----------------------------12----12----------------------||
|------------------10b10.5---12----12-12-10h12-----10------||
|-----10-12-(12)--------------------------------------12---||
|----------------------------------------------------------||
|---0----------------------0-----------------------------0-||
|
| E    E      S  S  E        +S  S  S  S     E         S S
|------3------x--x--3--------(3)-3--3--3-------------------||
|------3------x--x--3--------(3)-3--3--3---------------0-0-||
|------0------x--x--0--------(0)-0--0--0---------------0-0-||
|------2------x--x--0--------(0)-0--0--0---------------0-0-||
|-3----3------x--x--2--------(2)-2--2--2-------------------||
|--------------------------------------------3b3.5---------||
|
| E    S  S  +E     E        +Q           a  Q
|----------------------------------------------------------||
|----------------------------------------------------------||
|---------0--(0)-------------------------------------------||
|------2---------------------------------------------------||
|-3-----------------2--------(2)---------------------------||
|-----------------------------------------3s=5-------------||


 Guitar Solo
  D5       Csus2   D5          Csus2   D5N.C.
           PM       ~~~~~~~~~          PM
   S  S  S S  S  S  E    +E     S      S  S  S E
|--------------------------------------------------|
|--------------------------------------------------|
|--------------------------------------------------|
|-10h12-12---10h12-12---(12)---10b10.5---10-12-----|
|--------------------------------------------------|
|----------0---------------------------0-----------|
|
| Gtr I
|  Q          E     S S   S  S  S      S  E    S S
|--------------------------------------------------|
|--3----------3-----3-3---3--3--x------3--3--------|
|--2----------2-----0-0---0--2--x------0--2--------|
|--0----------0-----0-0---0--0--x------0--0--------|
|-------------------3-3---3------------3-------0h2-|
|--------------------------------------------------|
|
| Gtr II
|  PM--------|
|  E     E    Q           S  E         S  E    S S
|--------------------------------------------------|
|--------------------------------------------------|
|--------------------------------------------------|
|-------------0--------------0------------0--------|
|--------0----------------3------------3-------0h2-|
|--0-----------------------------------------------|


       Cadd9             G/B                          G
            ~~~~~~~~~~                            ~~~~~~~~~~~~
  E.   a a  S     +S   S  a      +S   S  e     S  S    +S      S  S T T
|-----------------------------------------------------------------------|
|----------13b15-(13)-13------------------------------------------------|
|--------x---------------12pb14r(12)-12-12----12-12---(12)----10--------|
|------x---------------------------------------------------------12-----|
|-----------------------------------------------------------------------|
|-------------------------------------------------------------------0-0-|
|
| E  E             S   S          E     +S  S  S  S     E         S S
|----3-------------x---x----------3-----(3)-3--3--3---------------------|
|----3-------------x---x----------3-----(3)-3--3--3---------------0-0---|
|----0-------------x---x----------0-----(0)-0--0--0---------------0-0---|
|----2-------------x---x----------0-----(0)-0--0--0---------------0-0---|
|-3--3-------------x---x----------2-----(2)-2--2--2---------------------|
|-------------------------------------------------------3b3.5-----------|
|
| E  S      S     +E              E     +Q          a   Q
|-----------------------------------------------------------------------|
|-----------------------------------------------------------------------|
|-----------0-----(0)---------------------------------------------------|
|----2------------------------------------------------------------------|
|-3-------------------------------2-----(2)-----------------------------|
|---------------------------------------------------3s==5---------------|


  D5              D5us2 CsD52   N.C.
                                      |--3--|
   a  E  e      Q     S S  S     +S   S  S  S E
|------------------------------------10-----------|
|-------------------------13b15-(13)----13p10-----|
|-----------------------x-------------------------|
|-10h12-10b10.5---------x-------------------------|
|-------------------------------------------------|
|-------------------------------------------------|
|
| Gtr I
|     Q         E S S S S  S      S   E       S S
|-------------------------------------------------|
|-----3---------3-3-3-3-3--x------3---3-----------|
|-----2---------2-0-0-0-2--x------0---2-----------|
|-----0---------0-0-0-0-0--x------0---0-----------|
|-----------------3-3-3-----------3-----------0h2-|
|-------------------------------------------------|
|
| Gtr II
|     PM--------|
|     E  E      Q     S E         S   E       S S
|-------------------------------------------------|
|-------------------------------------------------|
|-------------------------------------------------|
|---------------0-------0-------------0-----------|
|--------0------------3-----------3-----------0h2-|
|-----0-------------------------------------------|


    Cadd9            G/B               G
                  |---3----|                         |----3----|
  S S  S     +S   S   S    S S S  S  S  S     +S     S      S  S  S  S
|----------------10---------------------------------10------------------|
|-----13b15-(13)-----13p==10-----------13b15-(13)----------13p10-13-13--|
|---x------------------------x-x--x--x----------------------------------|
|---x------------------------x-x--x--x----------------------------------|
|----------------------------x-x--x--x----------------------------------|
|-----------------------------------------------------------------------|
|
| E    E          S     S    E   +S  S  S      S     E            S  S
|------3----------x-----x----3---(3)-3--3------3------------------------|
|------3----------x-----x----3---(3)-3--3------3------------------0--0--|
|------0----------x-----x----0---(0)-0--0------0------------------0--0--|
|------2----------x-----x----0---(0)-0--0------0------------------0--0--|
|-3----3----------x-----x----2---(2)-2--2------2------------------------|
|----------------------------------------------------3b3.5--------------|
|
| E    S      S  +E          E   +Q               a  Q
|-----------------------------------------------------------------------|
|-----------------------------------------------------------------------|
|-------------0--(0)----------------------------------------------------|
|------2----------------------------------------------------------------|
|-3--------------------------2---(2)------------------------------------|
|-------------------------------------------------3s=5------------------|


  D5         Csus2    D5    CsuD5   N.C.
        |--3--|  |---------6---------|      |---3----|
   +E   S  S  S  S     S  S  S  S    S     +S   S    S  e    e  e
|------10----------------10-----------------------------------------|
|-(13)----13p10-------10----13p10----------------------12---10-12---|
|---------------12b14---------------12b14r(12)p10------12---10-12---|
|---------------------------------------------------12--------------|
|-------------------------------------------------------------------|
|-------------------------------------------------------------------|
|
| Gtr I
|   Q            E           S    S         S     S     S S  E  S S
|-------------------------------------------------------------------|
|---3------------3-----------3----3---------3-----3-----x-3--3------|
|---2------------2-----------0----0---------0-----2-----x-0--2------|
|---0------------0-----------0----0---------0-----0-----x-0--0------|
|----------------------------3----3---------3-------------3-----0h2-|
|-------------------------------------------------------------------|
|
| Gtr II
|   PM----------|
|   E   E        Q                          S     E       S  E  S S
|-------------------------------------------------------------------|
|-------------------------------------------------------------------|
|-------------------------------------------------------------------|
|----------------0--------------------------------0----------0------|
|-------0-----------------------------------3-------------3-----0h2-|
|---0---------------------------------------------------------------|


     Cadd9       G/B                G
                               PM-|                                  ~~~~~
   S  S  S  a  S  S   S  S  S  T  T  S   S    E                S  S  S
|-------------------------------------------------------------10-----------|
|-------13-----------12------------------------------------------10-13b15--|
|-12s14----14s12-10--12-10----------10-[12]-[10]b10.5----------------------|
|--------------------------12----------------------------------------------|
|--------------------------------------------------------------------------|
|------------------------------0--0----------------------------------------|
|
|  E     E        S   S  E    +S     S   S    S         E         S  S
|--------3--------x---x--3----(3)----3---3----3----------------------------|
|--------3--------x---x--3----(3)----3---3----3-------------------0--0-----|
|--------0--------x---x--0----(0)----0---0----0-------------------0--0-----|
|--------2--------x---x--0----(0)----0---0----0-------------------0--0-----|
|--3-----3--------x---x--2----(2)----2---2----2----------------------------|
|-------------------------------------------------------3b3.5--------------|
|
|  E     S     S +E      E    +Q                      a Q
|--------------------------------------------------------------------------|
|--------------------------------------------------------------------------|
|--------------0-(0)-------------------------------------------------------|
|--------2-----------------------------------------------------------------|
|--3---------------------2----(2)------------------------------------------|
|-----------------------------------------------------3s5------------------|


  D5         Csus2          D5      CsuD5 N.C.
    ~~~~
              |------3-------|
   +E   S  S  e  S      +S   E    S  S  S S  S S  S  S
|------10-------------------------------------------------|
|-(13)----13-10------------------12-----------------------|
|---------------12pb14r(12)-10---12-10------10---12-12b14r|
|--------------------------------------12-----------------|
|---------------------------------------------------------|
|-----------------------------------------0----0----------|
|
| Gtr I
|   Q         E          S     S  S  S  S S  E    S  S
|---------------------------------------------------------|
|---3---------3----------3-----3--3--3--x-3--3------------|
|---2---------2----------0-----0--0--2--x-0--2------------|
|---0---------0----------0-----0--0--0--x-0--0------------|
|------------------------3-----3--3-------3-------0h=2----|
|---------------------------------------------------------|
|
| Gtr II
|   PM-------|
|   E   E     Q                   S  E    S  E    S  S
|---------------------------------------------------------|
|---------------------------------------------------------|
|---------------------------------------------------------|
|-------------0----------------------0-------0------------|
|-------0-------------------------3-------3-------0h=2----|
|---0-----------------------------------------------------|


       Cadd9       G/B                   G
                                                         |---3---|
   +S   S  S S  S  S  S S  S   S     +S   S    S      S  S  S    S
|-------------------------------------------------------------------|
|---------------------------------------------12--------------------|
|-(12)-10------10----12----x--12b14r(12)-10---12-----10-------------|
|---------12--------------------------------------------12-10-------|
|---------------------------------------------------------------12--|
|------------0-----0----0-------------------------------------------|
|
|   E      E    S  S  E   +S   S      S   S    E         S    S
|----------3----x--x--3---(3)--3------3---3-------------------------|
|----------3----x--x--3---(3)--3------3---3--------------0----0-----|
|----------0----x--x--0---(0)--0------0---0--------------0----0-----|
|----------2----x--x--0---(0)--0------0---0--------------0----0-----|
|---3------3----x--x--2---(2)--2------2---2-------------------------|
|----------------------------------------------3b3.5----------------|
|
|   E      S S +E     E   +Q                a  Q
|-------------------------------------------------------------------|
|-------------------------------------------------------------------|
|------------0-(0)--------------------------------------------------|
|----------2--------------------------------------------------------|
|---3-----------------2---(2)---------------------------------------|
|-------------------------------------------3s=5--------------------|


  D5            Csus2        D5    Csus2  D5        N.C.
                              ~~~~~~~~~~~~~~~~~~       PM-
   S  S  S      S  S  S       S  S  +E     Q         S S
|---------------------------------------------------10---|
|-----------------12----------------------13b15----------|
|-------10b10.5---12-10b10.5-----------------------------|
|-10h12----------------------12-12-(12)------------------|
|------------------------------------------------------0-|
|---------------0--------------------------------------0-|
|
| Gtr I
|  Q               E          S  S   S  S  S    S E  S S
|--------------------------------------------------------|
|--3---------------3----------3--3---3--3--x----3-3------|
|--2---------------2----------0--0---0--2--x----0-2------|
|--0---------------0----------0--0---0--0--x----0-0------|
|-----------------------------3--3---3----------3----0h2-|
|--------------------------------------------------------|
|
| Gtr II
|  PM-------------|
|  E     E         Q                 S  E       S E  S S
|--------------------------------------------------------|
|--------------------------------------------------------|
|--------------------------------------------------------|
|------------------0--------------------0---------0------|
|--------0---------------------------3----------3----0h2-|
|--0-----------------------------------------------------|


    Cadd9           G/B                                G
 ---|     ~~
  S S  a  Q          e       S   S     +S   S    e      S  S
|-------------------13b13.5-15--15b17r(15)p13----------15-15b17r=|
|-----13h15-------------------------------------15---------------|
|----------------------------------------------------------------|
|----------------------------------------------------------------|
|-0-0------------------------------------------------------------|
|-0-0------------------------------------------------------------|
|
| E       E    S  S  E      +S   S      S   S    E      S  S
|---------3----x--x--3------(3)--3------3---3--------------------|
|---------3----x--x--3------(3)--3------3---3-----------0--0-----|
|---------0----x--x--0------(0)--0------0---0-----------0--0-----|
|---------2----x--x--0------(0)--0------0---0-----------0--0-----|
|-3-------3----x--x--2------(2)--2------2---2--------------------|
|------------------------------------------------3b3.5-----------|
|
| E       S S +E     E      +Q                a  Q
|----------------------------------------------------------------|
|----------------------------------------------------------------|
|-----------0-(0)------------------------------------------------|
|---------2------------------------------------------------------|
|-3------------------2------(2)----------------------------------|
|---------------------------------------------3s=5---------------|


  D5         Csus2         D5      CsuD5    N.C.
   +S   S  e  S  S     +S   S  e    S  S     +S   S  e
|-(15)p13----15-15b17r(15)p13------15-15b17r(15)p13------|
|---------15------------------15--------------------15---|
|--------------------------------------------------------|
|--------------------------------------------------------|
|--------------------------------------------------------|
|--------------------------------------------------------|
|
| Gtr I
|   Q         E         S   S  S S  S  S      E      S S
|--------------------------------------------------------|
|---3---------3---------3---3--3-3--x--3------3----------|
|---2---------2---------0---0--0-2--x--0------2----------|
|---0---------0---------0---0--0-0--x--0------0----------|
|-----------------------3---3--3-------3-------------0h2-|
|--------------------------------------------------------|
|
| Gtr II
|   PM-------|
|   E      E  Q                S E     S      E      S S
|--------------------------------------------------------|
|--------------------------------------------------------|
|--------------------------------------------------------|
|-------------0------------------0------------0----------|
|----------0-------------------3-------3-------------0h2-|
|---0----------------------------------------------------|


     Cadd9       G/B                      G
                         |----3-----|              |---3---|
   S  T  T  S  S  S   S  S     +S   S  S   S       S  S    S    S      S  S      S
|-13----------10-------------------------------------------------------------------|
|----15p13s10----13--10---------------12-------------------------------------------|
|-----------------------12b14r(12)p10-12--10b10.5------------------------10b10.5---|
|-------------------------------------------------12p10--------10h====12-----------|
|---------------------------------------------------------12-----------------------|
|--------------------------------------------------------------------------------0-|
|
|  E        E     S   S  E            +S   S       S    S       E         S      S
|-----------3-----x---x--3------------(3)--3-------3----3--------------------------|
|-----------3-----x---x--3------------(3)--3-------3----3-----------------0------0-|
|-----------0-----x---x--0------------(0)--0-------0----0-----------------0------0-|
|-----------2-----x---x--0------------(0)--0-------0----0-----------------0------0-|
|--3--------3-----x---x--2------------(2)--2-------2----2--------------------------|
|---------------------------------------------------------------3b3.5--------------|
|
|  E        S  S +E      E            +Q                     a  Q
|----------------------------------------------------------------------------------|
|----------------------------------------------------------------------------------|
|--------------0-(0)---------------------------------------------------------------|
|-----------2----------------------------------------------------------------------|
|--3---------------------2------------(2)------------------------------------------|
|------------------------------------------------------------3s=5------------------|


  D5            Csus2        D5   CsusD5 N.C.
                                PM                    ~~~~~
   |--3--|
   S  S  S  +S   a  S  +E     S S  S   S  S S  S   S  E
|---------------------------------------------------------|
|-------13-(13)-------------------12----------------------|
|-12s14---------14s12-(12)---10---12--10------10--12-12---|
|----------------------------------------12---------------|
|---------------------------------------------------------|
|-------------------------------0-----------0-------------|
|
| Gtr I
|  E.               S   S  S  E   +S   S  S S  E      S S
|--1----------------1---1--1--1---(1)--1--1-1--1------1-1-|
|--1----------------1---1--1--1---(1)--1--1-1--1------1-1-|
|--2----------------2---2--2--2---(2)--2--2-2--2------2-2-|
|--3----------------3---3--3--3---(3)--3--3-3--3------3-3-|
|--3----------------3---3--3--3---(3)--3--3-3--3------3-3-|
|--1----------------1---1--1--1---(1)--1--1-1--1------1-1-|
|
| Gtr II
|  PM
|  H.                                         +E      E
|---------------------------------------------------------|
|---------------------------------------------------------|
|---------------------------------------------------------|
|--3------------------------------------------(3)---------|
|--3------------------------------------------(3)---------|
|--3------------------------------------------(3)---------|


       Cadd9          G/B                      G
 ~~~~~~
                                                |--3---|
   +E   S S  S      S  S  S  +S   S  S  S       S   S  S  S  S
|--------------------------------------------------------------|
|------------------10-13------------12-------------------------|
|-(12)-10---12b14========12r(12)-10-12-10b10.5-----------------|
|---------0------------------------------------12p=10----10h12-|
|-----------------------------------------------------12-------|
|--------------------------------------------------------------|
|
|   E.    S  S      S  E      S   S  S  S       E         S  S
|---3-----3--3------3--3------3---3--3--3-------3---------3--3-|
|---3-----3--3------3--3------3---3--3--3-------3---------3--3-|
|---4-----4--4------4--4------4---4--4--4-------4---------4--4-|
|---5-----5--5------5--5------5---5--5--5-------5---------5--5-|
|---5-----5--5------5--5------5---5--5--5-------5---------5--5-|
|---3-----3--3------3--3------3---3--3--3-------3---------3--3-|
|
|   H.                                         +E         E
|--------------------------------------------------------------|
|--------------------------------------------------------------|
|--------------------------------------------------------------|
|---5------------------------------------------(5)-------------|
|---5------------------------------------------(5)-------------|
|---5------------------------------------------(5)-------------|


  PM
  |----3-----|    |-----3------|  |------3------|    |---3----|
  S   a  E.  E    E    a  E    E  E     a  E    E    E   E    E
|-----------13---13-----------13-13------------13---13--13---13---|
|-----------13---13-----------13-13------------13---13--13---13---|
|----12s14------------12s14------------12s14----------------------|
|-----------------------------------------------------------------|
|-----------------------------------------------------------------|
|-0---------------------------------------------------------------|
|
| E.           S  S S       E    +S  S       S    S  E     S    S
|-1------------1--1-1-------1----(1)-1-------1----1--1-----1----1-|
|-1------------1--1-1-------1----(1)-1-------1----1--1-----1----1-|
|-2------------2--2-2-------2----(2)-2-------2----2--2-----2----2-|
|-3------------3--3-3-------3----(3)-3-------3----3--3-----3----3-|
|-3------------3--3-3-------3----(3)-3-------3----3--3-----3----3-|
|-1------------1--1-1-------1----(1)-1-------1----1--1-----1----1-|
|
| PM
| H.                                                +E     E
|-----------------------------------------------------------------|
|-----------------------------------------------------------------|
|-----------------------------------------------------------------|
|-3-------------------------------------------------(3)-----------|
|-3-------------------------------------------------(3)-----------|
|-3-------------------------------------------------(3)-----------|


                            D.S.S. al Dbl. Coda
      |----3----|    |-----3------|
   a  E   E  a  E    E    a  E    E  Q    +Q
|--------15---------15-----------15-15---(15)\---||
|--------15---------15-----------15-15---(15)\---||
|-14s16-----14s16--------14s16-------------------||
|------------------------------------------------||
|------------------------------------------------||
|------------------------------------------------||
|
|     E.          S  S S       E    +H
|-----3-----------3--3-3-------3----(3)----------||
|-----3-----------3--3-3-------3----(3)----------||
|-----4-----------4--4-4-------4----(4)----------||
|-----5-----------5--5-5-------5----(5)----------||
|-----5-----------5--5-5-------5----(5)----------||
|-----3-----------3--3-3-------3----(3)----------||
|
|     W
|------------------------------------------------||
|------------------------------------------------||
|------------------------------------------------||
|-----5------------------------------------------||
|-----5------------------------------------------||
|-----5------------------------------------------||


  &&
  D5    Csus2 D5      CsD5N.C.
                 ~~~~~~~~~~~~~~
  H         E    Q.
|-----------------------------|
|---------------13b15---------|
|-----------------------------|
|-----------------------------|
|-----------------------------|
|-----------------------------|
|
| Gtr I
| Q   E S S S S  S    S E S S
|-----------------------------|
|-3---3-3-3-3-3--x----3-3-----|
|-2---2-0-0-0-2--x----0-2-----|
|-0---0-0-0-0-0--x----0-0-----|
|-------3-3-3---------3---0h2-|
|-----------------------------|
|
| Gtr II
| PM--|
| E E Q     S E       S E S S
|-----------------------------|
|-----------------------------|
|-----------------------------|
|-----0-------0---------0-----|
|---0-------3---------3---0h2-|
|-0---------------------------|


       Cadd9          G/B                           G
 ~~~~~~
   +E   S  S  e     a  e  S   S  e    a      +E      e
|------10----13----10h12---------------------------------|
|-(13)----10-----------------13--------------------------|
|-------------------------------12---12pb14r(12)----10---|
|--------------------------------------------------------|
|--------------------------------------------------------|
|--------------------------------------------------------|
|
|   E   E     S  S     E +S   S  S S          E      S S
|-------3-----x--x-----3-(3)--3--3-3---------------------|
|-------3-----x--x-----3-(3)--3--3-3-----------------0-0-|
|-------0-----x--x-----0-(0)--0--0-0-----------------0-0-|
|-------2-----x--x-----0-(0)--0--0-0-----------------0-0-|
|---3---3-----x--x-----2-(2)--2--2-2---------------------|
|---------------------------------------------3b3.5------|
|
|   E   S  S +E        E +Q           a       Q
|--------------------------------------------------------|
|--------------------------------------------------------|
|----------0-(0)-----------------------------------------|
|-------2------------------------------------------------|
|---3------------------2-(2)-----------------------------|
|-------------------------------------3s======5----------|


  D5       Csus2       D5       CsuD5    N.C.
   S  S  e  E     S  S  S     S  S  S     +S   S       S  S
|----------------10----------10-----------------------------|
|----------13b15----10-13b15----10--------------------------|
|-12-10----------------------------12b14r(12)-10b10.5-12-10-|
|-------12--------------------------------------------------|
|-----------------------------------------------------------|
|-----------------------------------------------------------|
|
| Gtr I
|  Q        E     S  S  S     S  S  S      E           S  S
|-----------------------------------------------------------|
|--3--------3-----3--3--3-----3--x--3------3----------------|
|--2--------2-----0--0--0-----2--x--0------2----------------|
|--0--------0-----0--0--0-----0--x--0------0----------------|
|-----------------3--3--3-----------3------------------0h=2-|
|-----------------------------------------------------------|
|
| Gtr II
|  PM------|
|  E     E  Q           S     E     S      E           S  S
|-----------------------------------------------------------|
|-----------------------------------------------------------|
|-----------------------------------------------------------|
|-----------0-----------------0------------0----------------|
|--------0--------------3-----------3------------------0h=2-|
|--0--------------------------------------------------------|


    Cadd9                  G/B                         G
  S  S     +S   S       S   S  S  S  S   S  e           S      S  e
|---------------------------------------------------------------------||
|------------------------------------------------------12-------------||
|---12b14r(12)-10b10.5-12--10--------------10b10.5-----12-----10------||
|-----------------------------12----10--12-----------------------12---||
|--------------------------------12-----------------------------------||
|---------------------------------------------------------------------||
|
| E         E           S   S  E    +S   S  S      S    E         S S
|-----------3-----------x---x--3----(3)--3--3------3------------------||
|-----------3-----------x---x--3----(3)--3--3------3--------------0-0-||
|-----------0-----------x---x--0----(0)--0--0------0--------------0-0-||
|-----------2-----------x---x--0----(0)--0--0------0--------------0-0-||
|-3---------3-----------x---x--2----(2)--2--2------2------------------||
|-------------------------------------------------------3b3.5---------||
|
| E         S   S      +E      E    +Q               a  Q
|---------------------------------------------------------------------||
|---------------------------------------------------------------------||
|---------------0------(0)--------------------------------------------||
|-----------2---------------------------------------------------------||
|-3----------------------------2----(2)-------------------------------||
|----------------------------------------------------3s=5-------------||


   Chorus
    D5    Csus2 D5  CsD5N.C.    Cadd9     G/B           G
   4/4
    Gtr I
    Q   E S S S S S S E S S   E E    S  S E +S  S S S   E     S S
||--------------------------|---3----x--x-3-(3)-3-3-3--------------||
||o-3---3-3-3-3-3-x-3-3-----|---3----x--x-3-(3)-3-3-3---------0-0-o||
||--2---2-0-0-0-2-x-0-2-----|---0----x--x-0-(0)-0-0-0---------0-0--||
||--0---0-0-0-0-0-x-0-0-----|---2----x--x-0-(0)-0-0-0---------0-0--||
||o-------3-3-3-----3---0h2-|-3-3----x--x-2-(2)-2-2-2-------------o||
||--------------------------|---------------------------3b3.5------||
|
|   Gtr II
|   PM--|
|   E E Q     S E   S E S S   E S S +E    E +Q        a Q
||--------------------------|--------------------------------------||
||o-------------------------|-------------------------------------o||
||--------------------------|-----0-(0)----------------------------||
||------0-------0-----0-----|---2----------------------------------||
||o---0-------3-----3---0h2-|-3-----------2-(2)-------------------o||
||--0-----------------------|-------------------------3s5----------||


  D5                             Cadd9     G/B           G
  E.   S +E  E +Q      E S S   E S S  S  S E +S  S S S   Q
|----------------------------|---3-3--x--x-3-(3)-3-3-3----------|
|-3----3-(3)-3-(3)-----3-----|---3-3--x--x-3-(3)-3-3-3----------|
|-2----2-(2)-2-(2)-----2-----|---0-0--x--x-0-(0)-0-0-0----------|
|-0----0-(0)-0-(0)-----0-----|---2-2--x--x-0-(0)-0-0-0----------|
|------------------------0h2-|-3-3-3--x--x-2-(2)-2-2-2----------|
|----------------------------|---------------------------3b3.5--|
|
| PM-----|
| E  E    Q     S  E S E S S   E S S +E    E +Q        a Q
|----------------------------|----------------------------------|
|----------------------------|----------------------------------|
|----------------------------|-----0-(0)------------------------|
|---------0--------0---0-----|---2------------------------------|
|----0----------3----3---0h2-|-3-----------2-(2)----------------|
|-0--------------------------|-------------------------3s5------|


  A5                             G
  E. S S S E +S  S S S S S S S   S S S S S S E +H
|------------------------------|-3-3-3-3-x-3-3-(3)----|
|------------------------------|-3-3-3-3-x-3-3-(3)----|
|-2--2-2-2-2-(2)-2-2-2-2-2-2-0-|-0-0-0-0-x-0-0-(0)----|
|-2--2-2-2-2-(2)-2-2-2-2-2-2-0-|-0-0-0-0-x-0-0-(0)----|
|-0--0-0-0-0-(0)-0-0-0-0-0-0-0-|-x-x-x-x-x-x-x--------|
|------------------------------|-3-3-3-3-x-3-3-(3)----|
|
| Q.       E +Q        S E   S   S S S S S S E +H
|------------------------------|----------------------|
|----------------------------0-|-0-0-0-0-x-0-0-(0)----|
|-2--------2-(2)-------2-2---0-|-0-0-0-0-x-0-0-(0)----|
|-2--------2-(2)-------2-2---0-|-0-0-0-0-x-0-0-(0)----|
|-0--------0-(0)-------0-0-----|-x-x-x-x-x-x-x-(x)----|
|------------------------------|-5-5-5-5-x-5-5-(5)----|


  D5    Csus2      D5        Csus2D5     N.C.
  H         E    S  S  a      +E   e
|---------------10--------------------------|
|------------------13-13-----(13)-----------|
|---------------------12pb14r(12)-10b10.5---|
|-------------------------------------------|
|-------------------------------------------|
|-------------------------------------------|
|
| Gtr I
| Q   E S S S S  S  S          E   S      S
|-------------------------------------------|
|-3---3-3-3-3-3--x--3----------3------------|
|-2---2-0-0-0-2--x--0----------2------------|
|-0---0-0-0-0-0--x--0----------0------------|
|-------3-3-3-------3--------------0h=====2-|
|-------------------------------------------|
|
| Gtr II
| PM--|
| E E Q     S E     S          E   S      S
|-------------------------------------------|
|-------------------------------------------|
|-------------------------------------------|
|-----0-------0----------------0------------|
|---0-------3-------3--------------0h=====2-|
|-0-----------------------------------------|


     Cadd9       G/B                G
                    ~~~~~~~~~~
   S  S  S S  S  S  S  S  +S   S  S S    S      S  S      S
|------------------------------------------------------------|
|------------------------------------------------------------|
|-12-10------10----12-12-(12)-10------------------10b10.5----|
|-------12-----------------------12-----10h====12------------|
|------------------------------------------------------------|
|----------0-----0------------------0---------------------0--|
|
|  E     E    S  S  E     +S   S  S S    E         S      S
|--------3----x--x--3-----(3)--3--3-3------------------------|
|--------3----x--x--3-----(3)--3--3-3--------------0------0--|
|--------0----x--x--0-----(0)--0--0-0--------------0------0--|
|--------2----x--x--0-----(0)--0--0-0--------------0------0--|
|--3-----3----x--x--2-----(2)--2--2-2------------------------|
|----------------------------------------3b3.5---------------|
|
|  E     S S +E     E     +Q          a  Q
|------------------------------------------------------------|
|------------------------------------------------------------|
|----------0-(0)---------------------------------------------|
|--------2---------------------------------------------------|
|--3----------------2-----(2)--------------------------------|
|-------------------------------------3s=5-------------------|


  D5       Csus2             D5  Csus2D5 N.C.
         ~~~~~~~~~~            PM
   S  S  S  S  +E   e        S S  E    e E
|--------------------------------------------|
|-12-----------------------------15p==13-----|
|-12-10--------------------------------------|
|-------12-12-(12)-10b10.5-------------------|
|--------------------------------------------|
|------------------------------0-------------|
|
|  Q            E   S      S S S  S S  E S S
|--------------------------------------------|
|--3------------3---3------3-3-3--x-3--3-----|
|--2------------2---0------0-0-2--x-0--2-----|
|--0------------0---0------0-0-0--x-0--0-----|
|-------------------3------3-3------3----0h2-|
|--------------------------------------------|
|
|  PM---------|
|  E     E      Q            S E    S  E S S
|--------------------------------------------|
|--------------------------------------------|
|--------------------------------------------|
|---------------0--------------0-------0-----|
|--------0-------------------3------3----0h2-|
|--0-----------------------------------------|


  Cadd9          G/B                      G
    PM                 PM
  S S  E    e    E  S  S  E      e      S  S
|--------------------------------------15-15b17r=|
|-----15p==13------------15p====13---------------|
|------------------------------------------------|
|------------------------------------------------|
|------------------------------------------------|
|---0------------------0-------------------------|
|
| E    E    S  S E +S  S  S S    E      S  S
|------3----x--x-3-(3)-3--3-3--------------------|
|------3----x--x-3-(3)-3--3-3-----------0--0-----|
|------0----x--x-0-(0)-0--0-0-----------0--0-----|
|------2----x--x-0-(0)-0--0-0-----------0--0-----|
|-3----3----x--x-2-(2)-2--2-2--------------------|
|--------------------------------3b3.5-----------|
|
| E    S S +E    E +Q         a  Q
|------------------------------------------------|
|------------------------------------------------|
|--------0-(0)-----------------------------------|
|------2-----------------------------------------|
|-3--------------2-(2)---------------------------|
|-----------------------------3s=5---------------|


  D5         Csus2         D5      CsuD5    N.C.
    S   S  e  S  S     +S   S  e    S  S     +S   S  e
|-(15)p13----15-15b17r(15)p13------15-15b17r(15)p13------|
|---------15------------------15--------------------15---|
|--------------------------------------------------------|
|--------------------------------------------------------|
|--------------------------------------------------------|
|--------------------------------------------------------|
|
|   Q         E         S   S  S S  S  S      E      S S
|--------------------------------------------------------|
|---3---------3---------3---3--3-3--x--3------3----------|
|---2---------2---------0---0--0-2--x--0------2----------|
|---0---------0---------0---0--0-0--x--0------0----------|
|-----------------------3---3--3-------3-------------0h2-|
|--------------------------------------------------------|
|
|   PM-------|
|   E      E  Q                S E     S      E      S S
|--------------------------------------------------------|
|--------------------------------------------------------|
|--------------------------------------------------------|
|-------------0------------------0------------0----------|
|----------0-------------------3-------3-------------0h2-|
|---0----------------------------------------------------|


     Cadd9          G/B                    G
      ~~                                   PM--|
   S  E    S  a  S   S  S  S     +S   S  S S   S      S      +S   S
|--------------------------------------------------------------------|
|-13h15---13---------------------------------------------------------|
|------------14s12--10-12-12b14r(12)p10--------------12pb14r(12)-10--|
|---------------------------------------12---------------------------|
|--------------------------------------------------------------------|
|------------------------------------------0---0---------------------|
|
|  E    E        S   S  E        +S   S  S S   E              S   S
|-------3--------x---x--3--------(3)--3--3-3-------------------------|
|-------3--------x---x--3--------(3)--3--3-3------------------0---0--|
|-------0--------x---x--0--------(0)--0--0-0------------------0---0--|
|-------2--------x---x--0--------(0)--0--0-0------------------0---0--|
|--3----3--------x---x--2--------(2)--2--2-2-------------------------|
|----------------------------------------------3b3.5-----------------|
|
|  E    S  S    +E      E        +Q          a Q
|--------------------------------------------------------------------|
|--------------------------------------------------------------------|
|----------0----(0)--------------------------------------------------|
|-------2------------------------------------------------------------|
|--3--------------------2--------(2)---------------------------------|
|--------------------------------------------3s5---------------------|


  D5       Csus2      D5         CsuD5N.C.
                                    PM      PM|
   S  S  S S  S     S  S  S  E    S S  S  S S S
|---------------------10------------------------|
|------------------10----13-13--------12--------|
|-12-10------12b14----------12---10---12-10-----|
|-------12-0------------------------------------|
|-----------------------------------------------|
|-----------------------------------0-------0-0-|
|
|  Q          E        S  S  S S  S S  E    S S
|-----------------------------------------------|
|--3----------3--------3--3--3-3--x-3--3--------|
|--2----------2--------0--0--0-2--x-0--2--------|
|--0----------0--------0--0--0-0--x-0--0--------|
|----------------------3--3--3------3-------0h2-|
|-----------------------------------------------|
|
|  PM--------|
|  E     E    Q              S E    S  E    S S
|-----------------------------------------------|
|-----------------------------------------------|
|-----------------------------------------------|
|-------------0----------------0-------0--------|
|--------0-------------------3------3-------0h2-|
|--0--------------------------------------------|


     Cadd9          G/B                 G
                        ~~~~~~~~~~~~~~
   a  E  S S  S   S  a  E  +Q    +E   E
|----------------------------------------*|
|----------------------------------------*|
|----------------------------------------*|
|-10h12-10---10h=12-10h12-(12)--(12)\----*|
|----------------------------------------*|
|----------0-----------------------------*|
|
|     E  Q              E  +H
|--------3--------------3--(3)-----------*|
|--------3--------------3--(3)-----------*|
|--------0--------------0--(0)-----------*|
|--------2--------------0--(0)-----------*|
|-----3--3--------------2--(2)-----------*|
|----------------------------------------*|
|
|     E  S S +E         E  +H
|----------------------------------------*|
|----------------------------------------*|
|----------0-(0)-------------------------*|
|--------2-------------------------------*|
|-----3-----------------2--(2)-----------*|
|----------------------------------------*|


Duration Legend
---------------
W - whole; H - half; Q - quarter; E - 8th; S - 16th; T - 32nd; X - 64th; a - acciaccatura
+ - note tied to previous; . - note dotted; .. - note double dotted
Uncapitalized letters represent notes that are staccato (1/2 duration)
Irregular groupings are notated above the duration line
Duration letters will always appear directly above the note/fret number it represents the
duration for.  Duration letters with no fret number below them represent rests.  Multi-
bar rests are notated in the form Wxn, where n is the number of bars to rest for.  Low
melody durations appear below the staff

Tablature Legend
----------------
 h   - hammer-on
 p   - pull-off
 b   - bend
 pb  - pre-bend
 r   - bend release (if no number after the r, then release immediately)
 /\  - slide into or out of (from/to "nowhere")
 s   - legato slide
 S   - shift slide
  - natural harmonic
[n]  - artificial harmonic
n(n) - tapped harmonic
 ~   - vibrato
 tr  - trill
 T   - tap
 TP  - trem. picking
 PM  - palm muting
\n/  - tremolo bar dip; n = amount to dip
 \n  - tremolo bar down
 n/  - tremolo bar up
/n\  - tremolo bar inverted dip
 =   - hold bend; also acts as connecting device for hammers/pulls
 <>  - volume swell (louder/softer)
 x   - on rhythm slash represents muted slash
 o   - on rhythm slash represents single note slash

Misc Legend
-----------
 |  - bar
||  - double bar
||o - repeat start
o|| - repeat end
*|  - double bar (ending)
 :  - bar (freetime)
 $  - Segno
 &  - Coda
Tempo markers -  = BPM(8/16=s8/s16), where s8 = swing 8ths, s16 = swing 16ths


***************************************************************************************
* Generated using Power Tab Editor by Brad Larsen - http://powertab.guitarnetwork.org *
***************************************************************************************
Related for Blue On Black tab