Song name
# A B C D E F G H I J K L M N O P Q R S T U V W X Y Z

Shepherd Kenny Wayne - Whats Goin Down tab

Intro: x2
E---------3-----------------------------------------------------|
B---------3h5p3---------3-3-3-----------------------------------|
G-----------------------2-4-2h4p2-------------5------5----5-----|
D-----x----------5------------------5-0-------5------5h7--5-----|
A---5-x----------------------------------5/7------5-------------|
E---3-x---------------------------------------------------------|

                                    On third time after  ^^ and play:
E------------------------|--------------------------------------|
B------------------------|--------------------------------------|
G------------------------|--------------------------------------|
D------------------------|---5-6-7------------------------------|
A---77-5h7p5--------3----|---3-4-5------------------------------|
E-------------5-3---5----|--------------------------------------|

Verse:
E----------------------------------------------------------------|
B-----------3----------------------------------------------------|
G-----------2h4p2------------------------------------------------|
D---5-5-----------4---5-5-5--------------------------------------|
A---3-3---------------3-3-3--------------------------------------|
E----------------------------------------------------------------|

Afer each verse play intro the with the 5 6 7 except for 2nd verse play
                                        3 4 5
regular intro then play this intro      ^^^^^

Chorus:
E---------------------------------------------------------------|
B---------------------------------------------------------------|
G------------------------------------------x---x----------------|
D--4-4-4---2-2-2---4-4-4(x2)-5-5--11-11----x-5-x-6--------------|
A--2-2-2---0-0-0---2-2-2-----3-3---9--9----x-3-x-4--------------|
E---------------------------------------------------------------|

Then Solo.

Verse.

Chorus.

Then play intro x3.

Another Solo.

Intro x3.

Then: Slowed down intro with different ending.
E---------3-----------------------------------------------------|
B---------3h5p3---------3-3-3-----------------------------------|
G-----------------------2-4-2h4p2-------------5------5----5-----|
D-----x----------5------------------5-0-------5------5h7--5-----|
A---5-x----------------------------------5/7------5-------------|
E---3-x---------------------------------------------------------|

E---------------------------------------------------------------|
B---------------------------------------------------------------|
G---------------------------------------------------------------|
D---------------------------------------------------------------|
A---5/7-5-------------------------------------------------------|
E------------7\5---3--------------------------------------------|
Tap to rate this tab
# A B C D E F G H I J K L M N O P Q R S T U V W X Y Z