Guitaretab - guitar tabs
Song name
# A B C D E F G H I J K L M N O P Q R S T U V W X Y Z

Sherwood - Middle Of The Night tab

SONG:   Middle of the Night
ARTIST: The Soviettes
ALBUM:  LP III
YEAR:   2005
TRACK:  3
TUNING: eBGDAE (standard)


(0:00)
e|--------------------------7------|
B|---------------------------7-----|
G|----7>--9-------------------7----|
D|----7>--9--9>--7--5>--7>---------|
A|----5>--7--9>--7--5>--7>---------|
E|-----------7>--5--3>--5>---------|


(0:07)    pm      pm          pm          pm
e|-----------------------------------------------------------|
B|-----------------------------------------------------------|
G|-----------------------7~~------7--------------------------|
D|----9~~-----9~~-----9--7~~------7--7~~------777/9--9--7----|
A|----9~~-----9~~-----9--5~~--5>--5--5~~------777/9--9--7----|    2
E|----7~~-7>--7~~-7>--7--------------5~~--5>--555/7--7--7----|
  She's over there, over there he saw her
  Look away, look again, yeah, he saw her
  He's sayin' "Whoops! There's another one down to the middle of the night."
  It's not a son that she wants to be thought of
  It's not this girl, but a boy he'll be proud of
  He's sayin' "Whoops! There's another one down to the middle of the night."


(0:32)
e|--------------------|
B|--------------------|
G|----7-7-------------|
D|----7-7--7-7--9>----|
A|----5-5--7-7--9>----|  x3
E|---------5-5--7>----|
  He's thinking, "This can't be what I found."
  I'm thinking she's sittin', feelin' down,
  Keep screamin'


(0:42)
e|-----------------|
B|-----------------|
G|-----------------|
D|----7--5>--7>----|
A|----7--5>--7>----|
E|----5--3>--5>----|
  You know she's gonna run away

[ Tab from: http://www.guitaretab.com/s/sherwood/144780.html ]
(0:45)    pm      pm          pm          pm
e|-----------------------------------------------------------|
B|-----------------------------------------------------------|
G|-----------------------7~~------7--------------------------|
D|----9~~-----9~~-----9--7~~------7--7~~------777/9--9--7----|
A|----9~~-----9~~-----9--5~~--5>--5--5~~------777/9--9--7----|    2
E|----7~~-7>--7~~-7>--7--------------5~~--5>--555/7--7--7----|
  He said, "Now listen, girl, I'm your father,
  and you will live in this house as a daughter."
  He's sayin' "Whoops! There's another one down to the middle of the night."
  He says, "I'll never see this as a falter."
  And that he's not gonna stand and applaud her
  He's sayin' "Whoops! There's another one down to the middle of the night."


(1:11)
e|--------------------|
B|--------------------|
G|----7-7-------------|
D|----7-7--7-7--9>----|
A|----5-5--7-7--9>----|  x3
E|---------5-5--7>----|
  She's sayin', "How could you let me down?"
  Keep sayin', "I don't want you around"
  Game over


(1:20)
e|-----------------|
B|-----------------|
G|-----------------|
D|----7--5>--7>----|
A|----7--5>--7>----|
E|----5--3>--5>----|
  Now she's a little runaway


(1:24)
e|--------------------------------------------------------|
B|--------------------------------------------------------|
G|----7>--9-----------------------7>--9-------------------|
D|----7>--9--9>--7--5>--7>--9>----7>--9--9>--7--5>--7>----|
A|----5>--7--9>--7--5>--7>--9>----5>--7--9>--7--5>--7>----|
E|-----------7>--5--3>--5>--7>-----------7>--5--3>--5>----|
  She's a little runaway
  All the things that you said you were sure of
  Away
  And you know she ain't comin' back!


(1:35)
e|-----------------------------------------|
B|-----------------------------------------|
G|-----------------------------------------|
D|-----------------------------------------|    2
A|--------4-5------5-7------5-7-9-7-5------|
E|----3-3------5-5------7-7-----------7----|


(1:41)
e|-------------------------------------------------------------|
B|-------------------------------------------------------------|
G|-------------------------------------------------------------|
D|-------------------------------------------------------------|
A|--------4-5------7~~------5-7-9-7-5----9bbbbb10bbb9bb~~~~----|
E|----3-3------5-5------7-7-----------7------------------------|


(Guitar rests until the end of the song. You can palm-mute if you feel like
it, but if you do so, there aren't the breakouts into clean power chords as
in the verses above.)


  A pair of heels, now she's standing taller
  A tiny dress and she's got what they wanted
  Sayin' "Whoops! There's another one down to the middle of the night."
  No turning back, now it's ten on the dollar
  He doesn't care that they sold and they bought her
  He's sayin' "Whoops! There's another one down to the middle of the night."
Related for Middle Of The Night tab