Song name
# A B C D E F G H I J K L M N O P Q R S T U V W X Y Z

Sherwood - A Different Light tab

INTRO  - "A DIFFERENT LIGHT" by SHERWOOD
tabbed by: ranonon
tuning: standard eadgbe


this is how i play the intro:


e|----------------|----------------------------|
B|-8-7-----------7|---8-7-----6h7\5-7/10-7-----|
G|-----9-7---7-9--|-7-----9-7--------------9-7~|
D|---------7------|----------------------------|
A|----------------|----------------------------|
E|----------------|----------------------------|


then at around 1 minute:

e|----------------|----------------------|
B|-8-7-----------7|---8-7-----6h7\5-7/10~|
G|-----9-7---7-9--|-7-----9-7------------|
D|---------7------|----------------------|
A|----------------|----------------------|
E|----------------|----------------------|


h- hammer on
\- slide down            if there are any mistakes, message me! thank you
/- slide up
Tap to rate this tab
 
# A B C D E F G H I J K L M N O P Q R S T U V W X Y Z