Song name
# A B C D E F G H I J K L M N O P Q R S T U V W X Y Z

Sheryl Crow - Anything But Down chords

Highlighted       Show chord diagrams
Sheryl Crow - Anything But Down
C#m7b5:x42000

                 Em                                                X2
       E |-------|------------------------|---------------------|
       B |-------|--5s7s5---3s2--0--------|--5s7s5--3s2-----3---|
       G |-------|------------------------|---------------------|
       D |-2s4s2-|-------------------2s4s2|---------------------|
       A |-------|------------------------|---------------------| 
       E |-------|------------------------|---------------------|

   Verse 1
                Em        D            A                C
   I light your cigarette, I bring you apples from the vine 
                Em        D            A                C
   How quickly you forget, I run the bath and pour the wine
   Em         C#m7b5            C
   I bring you everything that floats into your mind 
   
   Chorus              Am
                      ------------0----2----3--------|
                      -1--1---3----1----1----1-------|
                      -2---2---2----2----2----2------|
                      -2----2---2--------------------|
                      -0-----------------------------|
                      -------------------------------|
                          
   G                      D                Am
   Now you don't bring me anything but down 
   G                      D                Am
   Now you don't bring me anything but down
   G                      D                Am
   Now you don't bring me anything but down
   Em                     
   When you come round

   Verse 2
             Em        D            A              C
   You are a raging sea, I pull myself out everyday 
             Em    D                A                   C
   I plea insanity, 'cause I can't leave and I can't stay
          Em          C#m7b5            C 
   You say won't you come find me and yes is what I'll say

   Chorus
   G                      D               Am
   Now you don't bring me anything but down 
   G                      D               Am
   Now you don't bring me anything but down
   Em             F                 Am
   everything is crashing to the ground
   Em               C#m7b5
   Maybe I'm not your perfect kind
   C
   Maybe I'm not what you had in mind 
   Em         C#m7b5               C
   And maybe we're just killing time 
   Int   G       D      Am    C        G       Dm      Am 

   e |-3s7---8---10---12s5---3h5p3h5---7---8---10---12s5---5p3---3h5---3s0--| 

        
   Verse 3
                Em          D           A                 C
   You with your silky words, and your eyes of green and blue
                  Em          D               A                 C
   You with your steel beliefs that don't match anything you do
   Em              C#m7b5      C 
   You were so much easier before you became you.


   Chorus
   G                      D                Am
   Now you don't bring me anything but down 
   G                      D                Am
   Now you don't bring me anything but down 
       G                D                Am
   And everything just crashes to the ground.
                        G   F   Em
   When you come around.
                        G   F   Am
   When you come around ..

  Outro
   G                     D
   Well no more playing seek and hide, 
   Am                C 
   No more long and wasted nights,
   G                 D            Am   
   Can't you make it easy on yourself.
        G                 D
   Well I know you wish you were strong,
   Am                 C
   You wish you were never wrong, 
        G          F             Am 
   Well I got some wishes of my own.
Tap to rate this tab
# A B C D E F G H I J K L M N O P Q R S T U V W X Y Z