Song name
# A B C D E F G H I J K L M N O P Q R S T U V W X Y Z

Shihad - Home Again tab

Artist: Shihad
Song: Home Again

tabbed by - shanE
email: random.hero___@hotmail.com

*tuning - drop D*


|--------------------------|
|--------------------------|
|-1010101010--9-9-9-9-9----|
|-1010101010-1010101010----| played throughout
|--8-8-8-8-8--8-8-8-8-8----|
|--------------------------|

/intro
|----------|
|----------|
|----------|
|---0-~----| get some feedback 
|---0-~----|
|---0-~----|


/verse
|---------------------------------|
|---------------------------------|
|---------------------------------|
|-10--0~--5-5-5--5-5-5--3-3-3-----|
|-10--0~--3-3-3--5-5-5--3-3-3-----|
|-10--0~---------5-5-5--3-3-3-----|

|---------------------------------|
|---------------------------------|
|---------------------------------|
|-10--0~--5-5-5--121212--101010---| <
                        
                    
Tap to rate this tab
# A B C D E F G H I J K L M N O P Q R S T U V W X Y Z