Guitaretab - guitar tabs
Song name
# A B C D E F G H I J K L M N O P Q R S T U V W X Y Z

Shocked Michelle - Blackberry Blossom tab

Blackberry Blossom
|-------7--------------------------------------------------------------|
|--8-10---8-7-8-10-7---7-8-------------------------------------------7-|
|-------------------9-----9-7-----------------------------7--------9---|
|-----------------------------9-7---------------------7-9---9----------|
|---------------------------------10-7-9-10-7----7-10---------10-7----|
|---------------------------------------------10-----------------------|

|-------7---------------------------------------------------------|
|--8-10---8-7-8-10-7---7-8----------------------------------------|
|-------------------9-----9-7-----------------------------7-------|
|-----------------------------9-7---------------------7-9---9-----|
|---------------------------------10-7-9-10-7----7-10---------10-7|
|---------------------------------------------10------------------|
[ Tab from: http://www.guitaretab.com/s/shocked-michelle/17175.html ]
1. _____________|2._________________
|-----------------------------------|
|-----------------------------------|
|-----------------------------------|
|--9----7------------9----7---------|
|----10---9-10---------10---9-10----|
|--------------------------------10-|

|----------------------------------------------7--------------|
|------------------------------------------7-8---10-7-8-------|
|--------9---7-9----9---7----------9---7-9--------------9-7---|
|----------9----------9---9-7--------9----------------------9-|
|-6/7------------7------------10-7----------------------------|
|-------------------------------------------------------------|

|--------------------------------|
|------------7-8-7-8-------------|
|----9---7-9---------9-7---------|
|------9-----------------9-10-7--|
|-7------------------------------|
|--------------------------------|

i couldn't find a tab in this position anywhere else so i made it
Related for Blackberry Blossom tab
Blackberry Blossom chords by Shocked Michelle