Shocking Blue - Hello Darkness chords

Highlighted       Show chord diagrams
Intro:

     C7
e|--------------------------------------------|
B|--------1--------1--------1--------1--------|
G|----------3--------3--------3--------3------|
D|-----2---------2--------2--------2----------|
A|---3---------3--------3--------3------------|
E|--------------------------------------------|

(The sixth string is tuned in C instead of E)
     Bb         C7          Bb         C7
e|---------------------|-----------------------------|
B|---------------------|-----------------------------|
G|---------------------|-----------------------------|
D|---------------------|-----------------------------|
A|---------------------|-----------------------------|
C|---10--9h10p9--7--0--|--0--10--9h10p9--7--0--------|

       F7          C7          G7          C7
e|-----------------------|------------------------------------------------|
B|-----------------------|------------------------------------------------|
G|-----------------------|------------------------------------------------|
D|-----------------------|------------------------------------------------|
A|-----------------------|------------------------------------------------|
C|---0--5--5h7----4p2p0--|--0--5--7--2h4p2--0---10-9-10--12--10-9-10--12--|

e|-----------------------|
B|-----------------------|
G|-----------------------|
D|-----------------------|
A|-----------------------|
C|---12--10--9--10--7----|

   Bb                Dm               C          
Between the grey and red shadows of twilight 
     F          F7  C
The time stands still. 
    F                    F7     
It seems like a hundred light-years 
           C
Since the day you went away. 

F   F7  C
Oh  Oh  Oh 
 C            F
Hello, Hello darkness 
 F7           G7                 C 
Step inside, Make the hours run thru' the night.   X2


 Bb           Dm           C
Knowing that you're far from my heart 
         F           F7  C
It's so hard to live ooooon. 
    F                F7
But on the day when you'll return 
   C
I know you'll make my fire burn 
 F                 F7              C
When this night is over you'll be mine. 

 C            F
Hello, Hello darkness 
 F7           G7                 C 
Step inside, Make the hours run thru' the night.   X2


Intro: Bb C7 Bb C7 F7 C7 G7 C7


 C            F
Hello, Hello darkness 
 F7           G7                 C 
Step inside, Make the hours run thru' the night.   X2

(END)
Tap to rate this tab
 
# A B C D E F G H I J K L M N O P Q R S T U V W X Y Z