Song name
# A B C D E F G H I J K L M N O P Q R S T U V W X Y Z

Shootie Hg - Devils Never Cry tab

e|----------------|------------------|----------------|
B|----------------|------------------|----------------|
G|----------------|------------------|----------------|
D|--7-7--8-8--5-5-|-7--10-10--5-5--7-|7--8-8--5-5--7--|
A|--7-7--8-8--5-5-|-5--10-10--5-5--7-|7--8-8--5-5--7--|
E|--5-5--6-6--3-3-|-5--8--8---3-3--5-|5--6-6--3-3--5--|

e|----------------|------------------|
B|----------------|------------------|
G|----------------|------------------|
D|--7-7---5---7-7-|-8--5-5--5-5---7--|
A|--7-7---5---7-7-|-8--5-5--5-5---7--|
E|--5-5---3---5-5-|-6--3-3--3-3---5--|

e|-----------------|------------------|------------------|
B|-----------------|------------------|------------------|
G|-----------------|------------------|------------------|
D|-10-10--5-5--7-7-|-8-8--5-5---7---7-|--7---5---7-7--8-8|
A|-10-10--5-5--7-7-|-8-8--5-5---7---7-|--7---5---7-7--8-8|
E|-8--8---3-3--5-5-|-6-6--3-3---5---5-|--5---3---5-5--6-6|

e|-------------------|----------------|
B|-------------------|----------------|
G|-------------------|----------------|
D|---5-5---7---10-10-|--5-5--7-7--8-8-|
A|---5-5---7---10-10-|--5-5--7-7--6-6-|
E|---3-3---5---8--8--|--3-3--5-5--6-6-|

e|-----------------|------------------|---------------------|
B|-----------------|------------------|---------------------|
G|-----------------|------------------|---------------------|
D|-5-5---7---7-7---|-5---7-7---8-8---5|---5---7---10-10--5-5|
A|-5-5---7---7-7---|-5---7-7---8-8---5|---5---7---10-10--5-5|
E|-3-3---5---5-5---|-3---5-5---6-6---3|---3---5---8--8---3-3|

e|------------------|----------------------------------|
B|------------------|----------------------------------|
G|------------------|----------------------------------|
D|---7-7---8-8---5-5|---7---7-7---5--------------------|
A|---7-7---8-8---5-5|---7---7-7---5--------------------|
E|---5-5---6-6---3-3|---5---5-5---3--------------------|
Tap to rate this tab
# A B C D E F G H I J K L M N O P Q R S T U V W X Y Z