Guitaretab - guitar tabs
Song name
# A B C D E F G H I J K L M N O P Q R S T U V W X Y Z

Shooting Blanks - Louder tab

www.babylonbombs.net

LOUDER
Babylon Bombs
From the album "Doin' You Nasty"

|--------------------------------------------------------------------------------------|
|--------------------------------------------------------------------------------------|
|--------------------------------------------------------------------------------------|
|-----------------------------------------------------------------------8--9--89------|
|----------------0--3--5----3--5---3--5------------------0--3--5----6--7--67----------|
|-0--3--4--5-------------------------------0--3--4--5----------------------------------|

(x2 - enter 2nd guitar)

A -----------------------------------------C C C
there thery are with their phony looks
A ------------------------------------C
acting cool but they got no hooks
A -------------------------------------- C C C
what the hell are you trying to prove
A ----------------------------------------------- A A A
come on get down and get into the groove

C (with palm mute)
this is how we like it baby
D (with palm mute)
this is what you need

|---------------------------10--10----|
|---------------------------10--10----|
|-------------------------------------|
|-------------------------------------|
|-------------------------------------|
|-------------------------------------|

C-----A---G---D
Lou-der, oh yeah

C-------D-----
harder, faster

-------------C----A----G---D
(We do it) Lou-der, oh yeah

C-------D-----
harder, faster, ALRIGHT

Guitar 1:
|--------------------------------------------------------------------------------------|
|--------------------------------------------------------------------------------------|
|--------------------------------------------------------------------------------------|
|-----------------------------------------------------------------------8--9--89------|
|----------------0--3--5----3--5---3--5------------------0--3--5----6--7--67----------|
|-0--3--4--5-------------------------------0--3--4--5----------------------------------|

(x2 - enter 2nd guitar)
[ Tab from: http://www.guitaretab.com/s/shooting-blanks/52051.html ]
Guitar 2 plays this (it's not 100% correct):
|------15-------15-------15-------15-18-15----15-18-15-----15-18-15------15-18b--|
|-18b-----18b------18b-----18b-------------18------------18-------------18-------|
|--------------------------------------------------------------------------------|
|--------------------------------------------------------------------------------|
|--------------------------------------------------------------------------------|
|--------------------------------------------------------------------------------|

A --------------------------------C C C
hey man, has someone died?
A --------------------------------------C
so depressed, got tu put that aside
A ---------------------------------- C C C
one chance you only live once
A ------------------------------------- A A A
so shake it off and enjoy the ride

C (with palm mute)
this is how we like it baby
D (with palm mute)
this is what you need
|---------------------------10--10----|
|---------------------------10--10----|
|-------------------------------------|
|-------------------------------------|
|-------------------------------------|
|-------------------------------------|

C-----A---G---D
Lou-der, oh yeah

C-------D-----
harder, faster

-------------C----A----G---D
(We do it) Lou-der, oh yeah

C-------D-----
harder, faster, ALRIGHT


(Solo - you can improvise it on A minor pentatonic)


C-----A---G---D
Lou-der, oh yeah

C-------D-----
harder, faster

-------------C----A----G---D
(We do it) Lou-der, oh yeah

C-------D-----
harder, faster, ALRIGHT

(oh yeah, we do it louder)
|-------------------------------------------------------------------------------------|
|-------------------------------------------------------------------------------------|
|-------------------------------------------------------------------------------------|
|-----------------------------------------------------------------------8--9--8--9----|
|----------------0--3--5----3--5---3--5------------------0--3--5----6--7--6--7--------|
|-0--3--4--5-------------------------------0--3--4--5---------------------------------|

C C C A
We need it fast
C C C A
C C C A

A

that's all.
Enjoy.
Related for Louder tab