Song name
# A B C D E F G H I J K L M N O P Q R S T U V W X Y Z

Shootyz Groove - Easily tab

Help us improve GuitareTab! Take a short survey!
Shootyz Groove (http://www.shootyzgroove.com/band.asp) is a kick ass band from New York 
has a hip hop feel with rock roots and a sick flava. You should hear their whole CD 
Definition" if you like this tab.

e/-----------------------------------------------------------------------|
b/-----------------------------------------------------------------------|
g/-------4-------4--------6-------6--------------------------------------|
d/-----4-------4---4----6-------6----------------------------------------|
a/-----------------------------------------------------------------------|
E/---4-----4-0--------6-----6-5-----5------------------------------------|


e/-----------------------------------------------------------------------|
b/-----------------------------------------------------------------------|
g/-------4-------4--------6----------------------------------------------|
d/-----4-------4---4----6------------------------------------------------|
a/-----------------------------------------------------------------------|
E/---4-----4-0--------6-----6-5------------------------------------------|

Repeat throughout song....When drums are added it make for a really chill song!
Related for Easily tab