Song name
# A B C D E F G H I J K L M N O P Q R S T U V W X Y Z

Shovels And Rope - Keeper tab

-------------------------------------------------------------------------------
                             Keeper - Shovels and Rope
-------------------------------------------------------------------------------
Tabbed by:rjh32009
E-mail:rjh32009@gmail.com

Tuning:Standard

Great song from an excellent band from Charleston, SC!!!

Listen to song for the timing...

Main Riff: Verse

      A             D    A              \ (slide barre chord down)
e|----5--5--5-5-----5-5--5-5-5-5-----------------------------------------------|
B|----5--5--5-5-----7-7--5-5-5-5-----------------------------------------------|
G|--- 6--6--6-6-----7-7--6-6-6-6-----------------------------------------------|
D|--- 7--7--7-7-----7-7--7-7-7-7-----------------------------------------------|
A|----7--7--7-7-----5-5--7-7-7-7-----------------------------------------------|
E|----5--5--0-5-----x-x--5-5-0-5-----------------------------------------------|

Chorus
     D    E    A    D   C#/D
e|---5----7----5----5---5----------------------------------------------------|
B|---7----9----5----7---7----------------------------------------------------|
G|---7----9----6----7---7----------------------------------------------------|
D|---7----9----7----7---7----------------------------------------------------|
A|---5----7----7----5-\-4----------------------------------------------------|
E|---x----x----5----x---x----------------------------------------------------|



************************************

| /   slide up
| \   slide down
| h   hammer-on
| p   pull-off
| ~   vibrato
| +   harmonic
| x   Mute note
| b   Bend
| pb  Pre-bend
| br  Bend release
| pbr Pre-bend release
| brb Bend release bend

************************************
Tap to rate this tab
# A B C D E F G H I J K L M N O P Q R S T U V W X Y Z