Song name
# A B C D E F G H I J K L M N O P Q R S T U V W X Y Z

Shuggie Otis - Purple tab

Shuggie Otis - Purple

Tab By Aldoalain


|------9-11p9-11b--11rp9---9b-9-6-------------------------------9---------|
|-11~----------------------------6----------6-----------9--11-9----11-----|
|----------------------------------8b-8-6-8---6h7--8/10-------------------|
|-------------------------------------------------------------------------|
|-------------------------------------------------------------------------|
|-------------------------------------------------------------------------|

|--------------------------------------------11/13-13-13--13b--13p11-13p11|
|-------11--13p11-13-11---------11--13-11h13------------------------------|
|-10/12------------------13-----------------------------------------------|
|---------------------------13--------------------------------------------|
|-------------------------------------------------------------------------|
|-------------------------------------------------------------------------|

|-13p11p9-----------9-10-11-9h10-6----------------------------6-----------|
|-----------11-9-11----------------6------------------------6---9p6-------|
|------------------------------------8/10---------------6h8---------10----|
|--------------------------------------------------7/8--------------------|
|------------------------------------------8-6-4--------------------------|
|------------------------------------------------6------------------------|

|------6---------------------------6-9b--6-8---6--------------------------|
|----6---9---6-6---------------6-9-----------9----9-6---6-8---------------|
|-8b-------------6h7----------------------------------8------6--6-8-8rp6--|
|--------------------8----------------------------------------------------|
|----------------------8-7-6----------------------------------------------|
|-------------------------------------------------------------------------|

|-------------------6-----9-11-11b---9b-9-6-------------------------------|
|-----------------6---11--------------------6-----------------------------|
|-8/10-6-8----6-7-----------------------------8b-8-6-8---6h7--------------|
|----------8-------------------------------------------8-----8------------|
|--------------------------------------------------------------8\6p4------|
|--------------------------------------------------------------------6----|

|------------------------------6------------------6-6-9b------9-11p9-11---|
|-9/11--9p6-9----------6----------9b-9b-9b--6-9-6----------11-------------|
|-------------10\8-6h8---6~-----------------------------------------------|
|---------------------------8---------------------------------------------|
|-------------------------------------------------------------------------|
|-------------------------------------------------------------------------|

|-11p9-11-9b---13br-13b-13-11---13---------9/11-9----9--------6-----------|
|----------------------------------11-14----------11---11---9b------------|
|---------------------------------------------------------------8brp6-8---|
|-----------------------------------------------------------------------8-|
|-------------------------------------------------------------------------|
|-------------------------------------------------------------------------|

|------------6-----6-8b-8b-----------------------8---------------------8--|
|------6-8---6h8-6----------13brp11-------11-/10---10-8--------------8----|
|-6-7-------------------------------12-10---------------10------10-8------|
|----------------------------------------------------------x-7------------|
|-------------------------------------------------------------------------|
|-------------------------------------------------------------------------|

|-8p5-8-4/5---------------------------------------------------------------|
|-----------6-----------------------6-------------------------------------|
|-------------5--------6-8-8b-8p6-----6-8-----6-8-8b-8p6------------------|
|---------------8--6-8------------8----------------------8------------6-8-|
|-------------------------------------------------------------4-6-6/8-----|
|-----------------------------------------------------------6-------------|

|-------------6----9b---9-------------6--------------------------6--------|
|-----------6---11------9h11-9--------------------------------------------|
|-6h7---6-7--------------------10\8-6---6b---6-8-8brp6---6----8b---8-6h7--|
|------------------------------------------------------8----0-------------|
|-------------------------------------------------------------------------|
|-------------------------------------------------------------------------|

|-6-8b-6h8----6--9b-6-----------11b-11p9-11p9-11-11/13-11-13p11-9---------|
|---------(8)---------9p6-------------------------------------------------|
|-------------------------8-6h7-------------------------------------------|
|-------------------------------------------------------------------------|
|-------------------------------------------------------------------------|
|-------------------------------------------------------------------------|

|----(9)---------9b---11h13p11p9-11----9-10-----------9-11/13-------------|
|-11----(11)--11--------------------11-------11-9-11-----------11-14-11---|
|-------------------------------------------------------------------------|
|-------------------------------------------------------------------------|
|-------------------------------------------------------------------------|
|-------------------------------------------------------------------------|

|-13b------------9b-11------9-11-11h12p11p9-11-9----------------9b--------|
|-14b-11-----11----------11----------------------11-9----9-11-9----11-9---|
|--------13-------------------------------------------10------------------|
|-------------------------------------------------------------------------|
|-------------------------------------------------------------------------|
|-------------------------------------------------------------------------|

|-----------------9-11p9-11h12p11p9-11-9----------------------------------|
|--------------11------------------------11-9----9-11-11~h13-9----11-9----|
|-10-8----------------------------------------10---------------10---------|
|-------11-8--------------------------------------------------------------|
|-------------------------------------------------------------------------|
|-------------------------------------------------------------------------|

|----------------------------------9h10-----------------------------------|
|----9-11-11~h13p11p9-11-9-11-9-11------11-9h11---9b--11---9-11-9b--------|
|-10----------------------------------------------------------------------|
|-------------------------------------------------------------------------|
|-------------------------------------------------------------------------|
|-------------------------------------------------------------------------|

|--------------------8------------------11-----9-----8-----6-------9b-----|
|-----11-9b(10)~--11---9b-------------------------------------9-11--------|
|--10---------------------10-9-8--10/12----(10)--(8)---(6)----------------|
|-------------------------------------------------------------------------|
|-------------------------------------------------------------------------|
|-------------------------------------------------------------------------|

|-11h12p11p9-11-9-----------------------------6---------------------------|
|-----------------11-9----------------------6---9-6-------6---------------|
|----------------------10-8h9p8\6-------6h8---------6h7-----6h7-----------|
|---------------------------------8p6-8-----------------8-------8p6-------|
|-------------------------------------------------------------------------|
|-------------------------------------------------------------------------|

|--------------------------6----------------------------------------------|
|------------------------6---9b-9b~-6-------6-----------6-9----8-6--------|
|------------------6h7h8--------------8p6-----6---------6-8h10-8-6h7------|
|------------6-8-6------------------------8-----8-6-6h8-------------------|
|-8p6\4h5-----------------------------------------------------------------|
|---------6---------------------------------------------------------------|

|-------------------------------------------------------------------------|
|-------------------------------------------------------------------------|
|---------6-------------6-------------6------------6------------6---------|
|-----6-8---8-------6-8---8-------6-8---8------6-8---8------6-8---8-------|
|-7h8-----------7h8----------7h8-----------7h8----------7h8---------------|
|-------------------------------------------------------------------------|

|----------------------------------6/8\6--------------------11------------|
|---------------------------8-6-6--6/8\6---------9--------8-----8---6-----|
|---------6------------6-----------6/8\6------10-------10-------8-8-6b----|
|-----6-8---8------6-8---8-----------------11-------11------------8-------|
|-7h8----------7h8--------------------------------------------------------|
|-------------------------------------------------------------------------|

|--9--9-x--9--9-x--9--9-x-----6-------10-10------8--10-8--------8\6-------|
|-10-10-x-10-10-x-10-10-x-8---6----9---9--------8--------8----------------|
|--9--9-x--9--9-x--9--9-x-8-8-6h7-----10-------8------------6/8-----------|
|-12-12-x-12-12-x-12-12-x---8-6-------------------------------------------|
|--------------------------------------------8----------------------------|
|-------------------------------------------------------------------------|

|-----6-------------------------------------------------------------------|
|-----6------------------6-9-8-------6------------------------------------|
|-----6-x-8----------6h7-------6-6h7----------6----------6----------------|
|-6h8---x---------6------------6-6--------6-8---8----6-8---8--------------|
|-------x-------8-----------------------8----------8----------------------|
|-----------9-6-----------------------------------------------------------|

|-------------------------------------------------------------------------|
|-------------------------------------------------------------------------|
|-------6----------6----------6----------6----------6----------6-6h7-7-7--|
|---6-8---8----6-8---8----6-8---8----6-8---8----6-8---8----6-8---8---8-8--|
|-8----------8----------8----------8----------8----------8----------------|
|-------------------------------------------------------------------------|

|--------------6---6---6---6---6---6---6---6---6---6-6-6----6-6---6-------|
|-6-6-6-6-6-6--8---8---8---8---8---8---8---8---8---8---8------8---8-------|
|-7-7-7-7-7-7--6---6---6---6---6---6---6---7---7---7---7------7---7-------|
|-8-8-8-8-8-8--8---------------------------8------------------------------|
|-------------------------------------------------------------------------|
|-------------------------------------------------------------------------|

|--8---8--8---8--8---8--8---8-6-6---6-6--6--6---6-----------6-------------|
|-10--10-10--10-10--10-10--10-8---8---8--8--8------8-8-9-9--6---8-6-------|
|--8-----------------8--8---8-6---6---6--6--7------7-7-7-7--7---7-7-------|
|-10-----------------------10-8---8---8--8--6------8-8-8-8------8-8-------|
|-------------------------------------------8-----------------------------|
|-------------------------------------------------------------------------|

|----------------------------9-9----9-------------------------------------|
|-9/11--9/11-9-6--6-----9/11---9h11-9h11-9--------------------------------|
|---------------8---6b---------------------10\8-6-8---6----6-8-8brp6-8----|
|---------------------------------------------------8---8-----------------|
|-------------------------------------------------------------------------|
|-------------------------------------------------------------------------|

|------------------------9-11-11b-11b-11r-9-----------------6-------------|
|-------------------------------------------11----------------------------|
|---6----6-8----6------------------------------10\8-6---6h8---6-7---------|
|-8---8-------8----8-6--------------------------------8-------------------|
|-----------------------------------------------------------------8\6-4---|
|-------------------------------------------------------------------------|

|----------------6------6----6--9p6---9/11-9-11-11/13--11-13-11----11-----|
|--------------6------6---9b--------6---------------------------14--------|
|---------6-8b-----8b-----------------------------------------------------|
|-6h8-8-8-----------------------------------------------------------------|
|-------------------------------------------------------------------------|
|-------------------------------------------------------------------------|

|--------------------------------------------------------------6----6-----|
|-14p13-11-13---------------------9b-------------------------6---9b---6---|
|-------------13-------------8-10----10-9-8-6-8-9p8p6---6-8b--------------|
|----------------15-----8-11--------------------------8-------------------|
|-------------------13----------------------------------------------------|
|-------------------------------------------------------------------------|

|-9b-6--------9-11b(13-13-13-13-13-13-13-1313-13-13-13-13-13-12-12-12-12--|
|------6-9/11-------------------------------------------------------------|
|-------------------------------------------------------------------------|
|-------------------------------------------------------------------------|
|-------------------------------------------------------------------------|
|-------------------------------------------------------------------------|

|-12-12-11-11-11-11-11)-9--11/13------9-11-11h12p11p9-11-9----------------|
|---------------------------9/11---11----------------------11-9-----------|
|---------------------------------------------------------------10-8h9p8--|
|-------------------------------------------------------------------------|
|-------------------------------------------------------------------------|
|-------------------------------------------------------------------------|

|----------------------------6-----6---9b-6---9b-6---9/11--9----9-9b------|
|------------------------------9b----6------6------6---------11-----------|
|----8----------6---6h8/9/10----------------------------------------------|
|-11---11p8\6h8---8-------------------------------------------------------|
|-------------------------------------------------------------------------|
|-------------------------------------------------------------------------|

|---------9-----13b-13-11-13-11-----11-----11-----11----------------------|
|-11-9-11---11------------------14b----14b----14b----14b-11----11-13b-----|
|-----------------------------------------------------------12------------|
|-------------------------------------------------------------------------|
|-------------------------------------------------------------------------|
|-------------------------------------------------------------------------|

|------------------------------------------------------------15-13--------|
|----------------------------------11-13brp11-13----11-13/15-------14b-11-|
|-13b-13b--13-10----10----10-11/12---------------12-----------------------|
|----------------13----13-------------------------------------------------|
|-------------------------------------------------------------------------|
|-------------------------------------------------------------------------|

|----------------------------------9b----------9b----------9b----------9--|
|-------13-15-----------------9-11----11--9-11----11--9-11----11--9-11----|
|-13-14-------13h14-------------------------------------------------------|
|-------------------15-13-15----------------------------------------------|
|-------------------------------------------------------------------------|
|-------------------------------------------------------------------------|

|----------9b---------9b---------9b----13b-13b-----13-15-15-13--16b-16-13-|
|-11-9-11-----11p9h11----11p9h11----11-14b-14b-11--14----14---------------|
|-------------------------------------------------------------------------|
|-------------------------------------------------------------------------|
|-------------------------------------------------------------------------|
|-------------------------------------------------------------------------|

|-----13-----13-----------------------------------------------------------|
|-16b----16b----14b--------14b--------------------------------------------|
|--------------------15-13-----15---13----13----------------------13-15-13|
|--------------------------------------15----15-14-13-11-13-13/15---------|
|-------------------------------------------------------------------------|
|-------------------------------------------------------------------------|

|-------------------------------------------------------13-16p13-16b-16---|
|-14----------14-16-16b-16b-16b-16b-16b-16b-16rp14--16b-------------------|
|----15-13-15-------------------------------------------------------------|
|-------------------------------------------------------------------------|
|-------------------------------------------------------------------------|
|-------------------------------------------------------------------------|

|-13----------------------------------------------------------------------|
|----16b-16-14----14-16----14---------------------------------------------|
|--------------15-------15----15-13----15-13------------------------------|
|-----------------------------------15-------15-14-13-11-13h14-13p11------|
|-------------------------------------------------------------------------|
|-------------------------------------------------------------------------|

|------------------------9-----9b--15b----15------------------------------|
|-----------------9-11p9---11~---------14----14------------14b------------|
|-------------------------------------------------15-13-15-----15---------|
|----13----11-------------------------------------------------------------|
|-13----13----13----------------------------------------------------------|
|-------------------------------------------------------------------------|

|--------------------------------16-18-16---------------------------------|
|-14-16-16b-16b~-----14-16-16/18----------18-17-16-14-16b-16b--16-14------|
|-----------------15-------------------------------------------------15---|
|-------------------------------------------------------------------------|
|-------------------------------------------------------------------------|
|-------------------------------------------------------------------------|

|-------------------------------------------------------------------------|
|-14b---------------------------------------------------------------------|
|-----15-13-------------------------------------------------------10/11/12|
|-----------15-14-13-11-13/15-13-11----13-11-------------13--11h13--------|
|-----------------------------------13-------13-12-11-10---13-------------|
|-------------------------------------------------------------------------|

|-----------------------------------------------------6------6------------|
|-11-13----13brp11----11-------9-9------------------6---9h10---6----------|
|-------12---------12----12\10-----10-10\8-6---6-8b--------------8brp6----|
|--------------------------------------------8----------------------------|
|-------------------------------------------------------------------------|
|-------------------------------------------------------------------------|

|-------------------------------------------------------------------------|
|----------------------------------6-9-6----------------------------------|
|---6-8-8b-8-6---6-8-8b-8-6---6-8b-------8b-8p6---8---6h7-----------------|
|-8------------8------------8-------------------8---8-----8-6-------------|
|-------------------------------------------------------------8-7-6-4-----|
|---------------------------------------------------------------------6---|

|--------------------6-8brp6-----6-------9b--9b-9-6-----------------------|
|-------------6--6-8---------9-6---10/11------------6---------------------|
|-------5-6h7-----------------------------------------8b-8p6---6---6------|
|-8-6h8------------------------------------------------------8---8--------|
|-------------------------------------------------------------------------|
|-------------------------------------------------------------------------|

|-----6------6----6--------6----------------------------------------------|
|---6------6---9b----9brbr---9-6-----------------9b-----------------------|
|8b-----8b-----------------------8b-8p6---6-8/10----10-9-8\6-------6---6--|
|---------------------------------------8--------------------8h6p8---8----|
|-------------------------------------------------------------------------|
|-------------------------------------------------------------------------|

|------6-----9----9-11h12p11p9-11-9---------------------------------------|
|--------9b----11-------------------11-9----------------------------------|
|-8/10-----------------------------------10-8h9p8p6-8p6-------6---8-------|
|-------------------------------------------------------8p6h8---8---8-----|
|-------------------------------------------------------------------------|
|-------------------------------------------------------------------------|

|----------------------------------------------------------------6-----6--|
|--------------------------------------------------------------6----9b---6|
|-------8---------------------------------------------6---6-8b------------|
|-8p6h8----6brb---------------------------8---6h8p6h8---8-----------------|
|---------------8p7p6\4--6-4-------4--6/8---8-----------------------------|
|-----------------------------4-5-6---------------------------------------|

|-9b-6---6----6--------------------6----9-11-11brp9-11p9----9-------------|
|-8b---9---9b---6--------------------9b------------------11---11-9----6---|
|-----------------8brp6---6-8/9/10---------------------------------10-----|
|-----------------------8-------------------------------------------------|
|-------------------------------------------------------------------------|
|-------------------------------------------------------------------------|

|------------6------------------------------------------------------------|
|------------------------------------------------------6---8b-8p6---6-----|
|--8-6---6h7---6h7-------------------------6---6-8p6-8---8--------8-------|
|------8-----------8p6-------------6-8p6-8---8----------------------------|
|----------------------8-6~----7-8----------------------------------------|
|----------------------------6--------------------------------------------|

|-------------------------------------------------------------------------|
|-------------------------------------------------------------------------|
|-8p6--8---6-7-----------6h7----------------------------------------------|
|----8---8-----8-6-8-6-8-----8-6------------------------------------------|
|--------------------------------8-6-5------------------------------------|
|-------------------------------------------------------------------------|
Tap to rate this tab
# A B C D E F G H I J K L M N O P Q R S T U V W X Y Z