Song name
# A B C D E F G H I J K L M N O P Q R S T U V W X Y Z

Siakol - Bunga tab

REMINDERS!!!!
Timingan nyo maige..
UUNAHIN KO MUNA CHORDS..

ADD ME ON FACEBOOK= LAVERN VASALLO

SIMPLE LEGEND:
* = Palm Mute

Bunga 
by:Siakol
 
Intro:   A-F#m-Bm-E
INTRO:
|--------------------------------------------------------------------|
|----------15-14-14-12-14-15-14-14-12-14-12-11-11~-------------------|
|-10-11-10-----------------------------------------------------------|
|--------------------------------------------------------------------|
|--------------------------------------------------------------------|
|--------------------------------------------------------------------|       



|--------------------------------------------------------------------|
|----------17-15-15~--14-15-14-17-15-15~--14-15-15-14-12-12~--b12-10~|
|-11-12-11-----------------------------------------------------------|
|--------------------------------------------------------------------|
|--------------------------------------------------------------------|
|--------------------------------------------------------------------|

Verse1:  A-Bm-E-A  
         E-F#m-G#m

         A-Bm-E
       
Refrain: F#m-F#m-G-G
         F#m-F#m-Bm-E

Chorus:  A-F#m-Bm-E (2x)

Verse2:  A-Bm-E-A  
         E-F#m-G#m

         A-Bm-E
       
Refrain: F#m-F#m-G-G
         F#m-F#m-Bm-E

Chorus:  A-F#m-Bm-E (2x)

Solo:    A-Bm-E-A  
         E-F#m-G#m

         A-Bm-E

Refrain: F#m-F#m-G-G
         F#m-F#m-Bm-E

Chorus:  A-F#m-Bm-E (2x)

Outro:   A-Bm-E-A



SOLO:
    * *    * *    * *     *   
|--------------------------------------------------------------------|
|----------------------10-10-----------------------------------------|
|-6-6-6--7-7-7--9-9-9-----------9-7-6-----b9-11p9------9-11-b9-------|
|-------------------------------------------------9-12---------------|
|--------------------------------------------------------------------|
|--------------------------------------------------------------------|

|--------------------------------------------------------------------|
|------12-14--12h14p12----12----------12-12h14p12----12--------------|
|-b14-----------------14----14-11-b9--------------14----14-11--------|
|------------------------------------------------------------14-14/16|
|--------------------------------------------------------------------|
|--------------------------------------------------------------------|

|--------------------------------------|
|--------------------------------------|
|-----------14~------------------------|
|--14-16-18----------------------------|
|--------------------------------------|
|--------------------------------------|
yan lang nakayanan ko e imbento na lang kayo...
Tap to rate this tab
# A B C D E F G H I J K L M N O P Q R S T U V W X Y Z