Guitaretab - guitar tabs
Song name
# A B C D E F G H I J K L M N O P Q R S T U V W X Y Z

Siakol - Lakas Tama tab

LAKAS TAMA by SIAKOL
Tabbed by: Rakizta_Ralph 
Email: fast_break20@yahoo.com.ph (friendster.com)

INTRO:

GUITAR 1:
	  Em			   C                      B
e|-------------------|-----------------------|-------------------|
B|-------------------|-----------------------|-------------------|
G|-------------------|--------5--------------|------4------------|
D|------9---------9--|------5-----------5----|----4---------4----|   (4x)
A|----7-----7h8-7----|--0-3-----3-3h4-3---3--|--2-----2-2h3---2--|
E|--0-----0----------|-----------------------|-------------------|


Guitar 2 enters when Guitar 1 is at 3x then continue
	Em
e|---------------|------------|--------------|
B|---------------|------------|--------------|
G|---------------|------------|--------------|
D|---------------|------------|--------------|   (2x)
A|---7--7h8------|--3--3-2----|--2--2---2-7--|
E|----------7----|---------2--|-------2------|

CHORD: Em-C-B-Em

ADLIB: 1min:23sec

Tappings sa akin to..ewan ko lang sa iba kasi sa kanila hindi eh...

e|--h15p12h14-h15p12h14-h15p12h14-h15p8h10-h12p8h10-h12p8h10-h12p8h10--|
B|---------------------------------------------------------------------|
G|---------------------------------------------------------------------|
D|---------------------------------------------------------------------|
A|---------------------------------------------------------------------|
E|---------------------------------------------------------------------|

e|--h12p7h8-h11p7h8-h11p7h8-h11p7h8-h11p7/12-h15p12h14-h15p12h14-h15p12h14--|
B|--------------------------------------------------------------------------|
G|--------------------------------------------------------------------------|
D|--------------------------------------------------------------------------|
A|--------------------------------------------------------------------------|
E|--------------------------------------------------------------------------|

e|--h15p12h14--|--h15p12h14-h15p12h14-h15p12h14-h15-------------------|
B|-------------|------------------------------------h13h15-h17p13h15--|
G|-------------|------------------------------------------------------|
D|-------------|------------------------------------------------------|
A|-------------|------------------------------------------------------|
E|-------------|------------------------------------------------------|





e|-------------------------------------------------------------------------|
B|--h17p13h15-h17p13h15-h17p12h13-h16p12h13-h16p12h13-h16p12h13-h16p12h13--|
G|-------------------------------------------------------------------------|
D|-------------------------------------------------------------------------|
A|-------------------------------------------------------------------------|
E|-------------------------------------------------------------------------|

e|--15-12--------------------------------------------12~-12h14h15-15p12h14--|
B|--------15-15b\---12~-------13~------12~-12h15-15b------------------------|
G|----------------------12h14----12h14--------------------------------------|
D|--------------------------------------------------------------------------|
A|--------------------------------------------------------------------------|
E|--------------------------------------------------------------------------|

e|--14p10-10b\--|
B|--------------|
G|--------------|
D|--------------|
A|--------------|
E|--------------|


ADLIB: 2min:17sec

e|--h15p12h14-h15p12h14-h15p12h14-h15p8h10-h12p8h10-h12p8h10-h12p8h10--|
B|---------------------------------------------------------------------|
G|---------------------------------------------------------------------|
D|---------------------------------------------------------------------|
A|---------------------------------------------------------------------|
E|---------------------------------------------------------------------|

e|--h12p7h8-h11p7h8-h11p7h8-h11p7h8-h11p7/12-h15p12h14-h15p12h14-h15p12h14--|
B|--------------------------------------------------------------------------|
G|--------------------------------------------------------------------------|
D|--------------------------------------------------------------------------|
A|--------------------------------------------------------------------------|
E|--------------------------------------------------------------------------|

e|--h15p12h14--|--h15p12h14-h15p12h14-h15p12h14-h15-------------------|
B|-------------|------------------------------------h13h15-h17p13h15--|
G|-------------|------------------------------------------------------|
D|-------------|------------------------------------------------------|
A|-------------|------------------------------------------------------|
E|-------------|------------------------------------------------------|
[ Tab from: http://www.guitaretab.com/s/siakol/44516.html ]
e|-------------------------------------------------------------------------|
B|--h17p13h15-h17p13h15-h17p12h13-h16p12h13-h16p12h13-h16p12h13-h16p12h13--|
G|-------------------------------------------------------------------------|
D|-------------------------------------------------------------------------|
A|-------------------------------------------------------------------------|
E|-------------------------------------------------------------------------|

e|--15-12----12~----------------------------------------------------------------|
B|--------15-----15-12-15-15b----12-----------------------4-5-7-8-10-10b-8-10b--|
G|----------------------------14----14-12-14-14b-7-9\-4-4-----------------------|
D|------------------------------------------------------------------------------|
A|------------------------------------------------------------------------------|
E|------------------------------------------------------------------------------|

e|--12~-10h12-15-15-12----12~-------------------------------------|
B|---------------------15-----15-12-15-15b-12-15-15-12-12h15-17~--|
G|----------------------------------------------------------------|
D|----------------------------------------------------------------|
A|----------------------------------------------------------------|
E|----------------------------------------------------------------|

e|--h15p12h14-h15p12h14-h15p12h14-h15p8h10-h12p8h10-h12p8h10-h12p8h10--|
B|---------------------------------------------------------------------|
G|---------------------------------------------------------------------|
D|---------------------------------------------------------------------|
A|---------------------------------------------------------------------|
E|---------------------------------------------------------------------|

e|--h12p7h8-h11p7h8-h11p7h8-h11p7h8-h11p7/12-h15p12h14-h15p12h14-h15p12h14--|
B|--------------------------------------------------------------------------|
G|--------------------------------------------------------------------------|
D|--------------------------------------------------------------------------|
A|--------------------------------------------------------------------------|
E|--------------------------------------------------------------------------|

e|--h15p12h14--|--h15p12h14-h15p12h14-h15p12h14-h15-------------------|
B|-------------|------------------------------------h13h15-h17p13h15--|
G|-------------|------------------------------------------------------|
D|-------------|------------------------------------------------------|
A|-------------|------------------------------------------------------|
E|-------------|------------------------------------------------------|

e|-------------------------------------------------------------------------|
B|--h17p13h15-h17p13h15-h17p12h13-h16p12h13-h16p12h13-h16p12h13-h16p12h13--|
G|-------------------------------------------------------------------------|
D|-------------------------------------------------------------------------|
A|-------------------------------------------------------------------------|
E|-------------------------------------------------------------------------|

e|--h15p12h14-h15p12h14-h15--|
B|---------------------------|
G|---------------------------|
D|---------------------------|    (STOP)
A|---------------------------|
E|---------------------------|

e|--h15p12h14-h15p12h14-h15p12h14-h15p8h10-h12p8h10-h12p8h10-h12p8h10--|
B|---------------------------------------------------------------------|
G|---------------------------------------------------------------------|
D|---------------------------------------------------------------------|
A|---------------------------------------------------------------------|
E|---------------------------------------------------------------------|

e|--h12p7h8-h11p7h8-h11p7h8-h11p7h8-h11p7/12-h15p12h14-h15p12h14-h15p12h14--|
B|--------------------------------------------------------------------------|
G|--------------------------------------------------------------------------|
D|--------------------------------------------------------------------------|
A|--------------------------------------------------------------------------|
E|--------------------------------------------------------------------------|

e|--h15p12h14--|--h15p12h14-h15p12h14-h15p12h14-h15-------------------|
B|-------------|------------------------------------h13h15-h17p13h15--|
G|-------------|------------------------------------------------------|
D|-------------|------------------------------------------------------|
A|-------------|------------------------------------------------------|
E|-------------|------------------------------------------------------|

e|-------------------------------------------------------------------------|
B|--h17p13h15-h17p13h15-h17p12h13-h16p12h13-h16p12h13-h16p12h13-h16p12h13--|
G|-------------------------------------------------------------------------|
D|-------------------------------------------------------------------------|
A|-------------------------------------------------------------------------|
E|-------------------------------------------------------------------------|

e|--15-12----------12----------------------------|
B|--------15-15b\-----15-12------------8-10-12~--|
G|--------------------------14-14p12-9-----------|
D|-----------------------------------------------|
A|-----------------------------------------------|
E|-----------------------------------------------|

THATíS IT. . . . . .


| /  slide up
| \  slide down
| h  hammer-on
| p  pull-off
| ~  vibrato
| +  harmonic
| x  Mute note
===============================================================================


Related for Lakas Tama tab