Song name
# A B C D E F G H I J K L M N O P Q R S T U V W X Y Z

Siakol - Habang Ang Lahat tab

hi binabati ko ang mga taga AMA Computer College In General Santos City at mga friend
sa Sampaloc ST. Gensan city......SA GUNS N ROSES Regards lang....


ARTIST: SIAKOL
TABBED BY: Laurence Ely ALamin & Jim ALamin at NoNsEnsE InSomIa Band


solo: timing lang mga tol....

         G-Bm-C-Eb-G-D-G------------------------------|  2x
E-----------------------------------------------------|
B------15--12h13--12--------15--12h13--12-------13----|
G--s12---------------12--11---------------12--9-------|
D-----------------------------------------------------|
A-----------------------------------------------------|
E-----------------------------------------------------|

E----------------------------------------------------|
B------------------------12-------------12-----------|
G------------10--12--14-----14--12-------------------|
D--10--12---------------------------12---------------|
A----------------------------------------------------|
E----------------------------------------------------|

E----------------------------------------------------|
B--15------------------------15--12--12h13--12--12---|
G------12--14--12h14--12--12-------------------------|
D----------------------------------------------------|
A----------------------------------------------------|
E----------------------------------------------------|

e--15--14--13h14--13---------------------------------|
B--------------------13--15--17--15--13h15-----12----|
G-------------------------------------------12-------|
D----------------------------------------------------|
A----------------------------------------------------|
E----------------------------------------------------|

E-----------------------------------------------------|
B--15-------------------------------------------------|
G-----12--14--12h14--12--9----------------------------|
D-----------------------------------------------------|
A-----------------------------------------------------|
E-----------------------------------------------------|

pakirate nyo na lang ang gawa na tab namin, kung may suggestion kayo o comment padala
kau email sa amin knowver_axl@yahoo.com at nonsense_insomia@yahoo.com & james_star0788@yahoo.com

NonSense InsOmia Band Member ]

 LaureNce Ely ALamin ( AlYas Knowver)
 Jenard jaleco (alyas jen )
 Jay R Virgilio ArcheS ( ALyas JR. )
 Noirr Maravellas       (ALyas Koy Koy)
 Dan EyoY Arcamo        ( Alyas EyoY )
Ian EMmaNuel Carmona    (Alyas TibSOl )
JAMES Alamin (alyas jim )

                    ThE NoNsEnSe InSoMiA BaNd In General SAntos City
Tap to rate this tab
 
# A B C D E F G H I J K L M N O P Q R S T U V W X Y Z