Song name
# A B C D E F G H I J K L M N O P Q R S T U V W X Y Z

Sick Of It All - Injustice System tab

------------------------------------------------------------------------------- 
                      INJUSTICE SYSTEM - Sick Of It All 
------------------------------------------------------------------------------- 

By:Jon Wong: jkwong@pixi.com 

INTRO: 
e|--------------------------------------------------------------------| 
B|--------------------------------------------------------------------| 
G|--------------------------------------------------------------------| 
D|-2-2-2-2-2-2-2-2-2-2-2-2-2-2-2-2-2-2-2-2-2-2-2-2--------------------| 
A|-2-2-2-2-2-2-2-2-2-2-2-2-2-2-2-2-2-2-2-2-2-2-2-2--------------------| 
E|-0-0-0-0-0-0-0-0-0-0-0-0-0-0-0-0-0-0-0-0-0-0-0-0--------------------| 

VERSE: 
e|--------------------------------------------------------------------| 
B|--------------------------------------------------------------------| 
G|--------------------------------------------------------------------| 
D|-9-9-9-9-10101010---9-9-9-9-10101010--------------------------------| 
A|-7-7-7-7--8-8-8-8---7-7-7-7--8-8-8-8--------------------------------| 
E|--------------------------------------------------------------------| 

CHORUS: 
e|--------------------------------------------------------------------| 
B|--------------------------------------------------------------------| 
G|--------------------------------------------------------------------| 
D|-2-2-2-2----------2-2-2-2-------------------------------------------| 
A|-2-2-2-2--3-3-3-3-2-2-2-2-3-3-3-3-----------------------------------| 
E|-0-0-0-0--1-1-1-1-0-0-0-0-1-1-1-1-----------------------------------| 

MONEY HAS THE REAL... PART 
e|--------------------------------------------------------------------| 
B|--------------------------------------------------------------------| 
G|--------------------------------------------------------------------| 
D|-2-2-2-2-5-5-5-5----------------------------------------------------| 
A|-2-2-2-2-3-3-3-3-5-5-5-5--------------------------------------------| 
E|-0-0-0-0---------3-3-3-3--------------X4----------------------------| 

=============================================================================
Tap to rate this tab
# A B C D E F G H I J K L M N O P Q R S T U V W X Y Z