Sido - Schlechtes Vorbild tab

 Piano transcribed for guitar


Played for the whole song (all eighth notes) 

|-------------------------------|----------------------------------|
|-------------------------------|----------------------------------|
|--10--10--10--10--10--7--7--7--|---9---9---9---9--10--10---9---9--|
|--12--12--12--10--10--8--8--8--|--10--10--10--10--10--10--10--10--|
|-------------------------------|----------------------------------|
|-------------------------------|----------------------------------|


You could also play some variations like this one:

   E   E   E   E   E  E  E   E      E   E   E   E   E   E   E   E    
|--------------------------------|----------------------------------||
|--------------------------------|----------------------------------||
|--10--10--10--10--10--7--7--10--|---9---9--10--10--12--12---9---9--||
|--12--12--12--10--10--8--8---8--|--10--10--10--10--10--10--10--10--||
|--------------------------------|----------------------------------||
|--------------------------------|----------------------------------||
Tap to rate this tab
 
# A B C D E F G H I J K L M N O P Q R S T U V W X Y Z