Song name
# A B C D E F G H I J K L M N O P Q R S T U V W X Y Z

Sie7e - Yo Tengo Tu Love tab

                    Yo tengo tu love
Artist: Sie7e
Tabbed by: SGplayer2


           G          D         E7        C9
Chords: e|--3--    e|--2--   e|--0--   e|--0--|
        B|--0--    B|--3--   B|--3--   B|--3--|
        G|--0--    G|--2--   G|--0--   G|--0--|
        D|--0--    D|--0--   D|--2--   D|--2--|
        A|--2--    A|--0--   A|--2--   A|--3--|
        E|--3--    E|--0--   E|--0--   E|--0--|


Intro:                    Riff:
                                G                      D
e|----0h3p0-------------------|------3-x-3-x-3---------------2-x-2---2------|
B|----------0h3p0-------------|------0-x-0-x-0-----0---------3-x-3---3------|
G|----------------0h2p0-------|:-----0-x-0-x-0--0h2-p0-------2-x-2---2------|
D|----------------------0h2p0-|--------x---x-----------0-------x------------|
A|----------------------------|--------x---x-------------------x------------|
E|----------------------------|--3-----x-3-x-3-----------------x------------|


            E7                       C9
e|----------------x---x------------------0-x-0-x-0-----------------------|
B|------0-------3-x-3-x-3------0---------3-x-3-x-3------0----------------|
G|---0h2-p0-----0-x-0-x-0---0h2-p0-------0-x-0-x-0---0h2-p0-and repeat---|
D|--------------2-x-2-x-2------------------x---x-------------------------|
A|----------2-----x---x--------------3-----x-3-x-3-----------------------|
E|----------------x---x--------------------x---x-------------------------|



Solo:

e|---4/7-7--7--7--7--8--8--7---5---5--5--5---5---7---7---5---3---|
B|---5/8-8--8--8--8--8--8--8---7---7--7--7---7---7---7---7---5---|
G|---------------------------------------------------------------|
D|---------------------------------------------------------------|
A|---------------------------------------------------------------|
E|---------------------------------------------------------------|


e|----------------------10-10--10b(1/2)r10--------10-10br10----------------|
B|-333--555--77-8-78----10-10--10b(1/2)r10---87---10-10br10-----7-8~~------|
G|-------------------------------------------------------------------------|
D|-------------------------------------------------------------------------|
A|-------------------------------------------------------------------------|
E|-------------------------------------------------------------------------|
Tap to rate this tab
# A B C D E F G H I J K L M N O P Q R S T U V W X Y Z