Song name
# A B C D E F G H I J K L M N O P Q R S T U V W X Y Z

Silencer - Death - Pierce Me tab

Death  Pierce (intro) Me Tab




Riff1


|---------------------------------|
|---------------------------------|
|----9---5---4--------------------|
|----------------5--4-4----------|
|---------------------------------|
|---------------------------------|


Riff2

|--------------------------------|
|---0-------1--------------------|
|-------0------2---4-------------|
|---------------------4---5---2--|
|--------------------------------|
|--------------------------------|



Riff3
|----------------|----------------|---------|
|----------------|----------------|---------|
|---9---9-11-9-5---5-7-5-4---4-5-4----------|
|----------------|-----------------5---4-4--|
|----------------|----------------|---------|
|----------------|----------------|---------|


Riff1 x 2
Riff3 x 2
Riff1 x 2
Riff3 x 2
Riff2 x 8
Tap to rate this tab
 
# A B C D E F G H I J K L M N O P Q R S T U V W X Y Z