Song name
# A B C D E F G H I J K L M N O P Q R S T U V W X Y Z

Silent Sanctuary - Summer Song tab

INTRO
e|------5---5/7------5/7---------------------------|
b|--------------5-------5/7----2/3-------5/7-------|
g|------6------------------6--------------------6/7|
d|------7---------0----------------0---------------|
a|---------------------------2---------------------|
e|-------------------------------------------------|


e|------5---5/7------5/7---------------------------|
b|--------------5-------5/7------------------------|
g|------6------------------6---6--7--9-------------|
d|------7---------0------------0--0--0-------------|
a|-------------------------------------------------|
e|-------------------------------------------------|

komentan nio ko or ikontak sa
http://www.friendster.com/yanyanbahista kung may problema.. :D

[ps. pakinggan mabuti para magets]
Tap to rate this tab
# A B C D E F G H I J K L M N O P Q R S T U V W X Y Z