Guitaretab - guitar tabs
Song name
# A B C D E F G H I J K L M N O P Q R S T U V W X Y Z

Silje Nergaard - Now And Then tab

Title: Now and Then
Artist:Silje Nergaard
Album: At First Light
Genre: Jazz

This is a cool song.

Chords, in order of appearance:
D2      x 5 x 7 7 0
C#m11   9 x 9 9 7 0
Bm11    7 x 7 7 5 0
D/E     x 7 7 7 7 x
Amaj7   x 0 2 1 2 0
Dmaj7   x x 0 2 2 2
Gmaj7*  3 x 4 4 3 2
Gmaj6*  3 x 4 4 3 0
F#7sus4 2 4 2 4 2 2
F#7     2 4 2 3 2 2
Bmaj7   x 2 4 3 4 2
F#add4  2 2 4 3 2 2
Em9     0 2 0 0 0 2
Em9/G   3 2 0 0 0 2
A6      x 0 2 2 2 2
A7#5    x 0 2 0 2 1
D6/9    x x 0 2 0 0
F13     1 3 1 2 3 1
G13     3 5 3 4 5 3
G7#5    3 x 3 4 4 3
Cmaj7   x 3 5 4 5 3	
Gadd4   x 3 5 4 3 3
Ebmaj7  x x 1 3 3 3
F7#5    1 x 1 2 2 1
Bbmaj7  x 1 3 2 3 1
Fadd4   x 1 3 2 1 1
F#13    2 4 2 3 4 2

* Gmaj7 and Gmaj6, play the bottom G with your thumb

There is an alternative version of Amaj7 and Dmaj7, used in the second and third verses:
Amaj7   5 x 6 6 5 4 (again play bottom A with your thumb)
Dmaj7   x x 0 6 7 5

The F#7sus4 F#7 sequence at the end of each verse goes like this:

|-----2----2-2----|
|----2---2-2-2----|
|---4---4--3-3----|
|--2---2---2-2----|
|----------4-4----|
|-2--------2-2----|

Order: Verse 1, Verse 2, Chorus, Verse3, Chorus, Guitar solo, chorus, chorus.

Verses:

   D2                C#m11
1. Now and then    behind the rows
2. Now and then when they're at rest
3. But then again  behind the rows

       Bm11                C#m11
1.  Of pearly teeth and    fashion clothes
2.     Flocked in sleep in cuckoo's nests
3. She feels the piercing  looks of those

   D2                   C#m11
1. She sees them in the mirror-tiles
2. Feeling safe no      need to hide
3. Who watch her every  move in case

   Bm11                D/E
1. Trying on their     latest smiles
2. She opens doors and windows wide
3. She happens to   forget her place

   Amaj7                 Dmaj7
1. Light and warmth from spotlight beams
2. And poised upon her   painted claws
3. Who sum her up        deny her flight

   Gmaj7                 Gmaj6             F#7sus4 F#7
1. Convincing them their nightmare is a    dream
2. She stretches out her gaudy wings and   soars
3. Aim their words and   shoot her down on sight
[ Tab from: http://www.guitaretab.com/s/silje-nergaard/132256.html ]
Chorus:

    Bmaj7 F#add4 Bmaj7 F#add4 Bmaj7
Far away
             Em9 Em9/G A6 A7#5
Borne by the wind
              Dmaj7 D6/9 Dmaj7 D6/9 Dmaj7
She roams the sky
   F13            G13  G7#5   Cmaj7 Gadd4 Cmaj7 Gadd4 Cmaj7
No one to say too low too high
   Ebmaj7           F13        
Or count the lonely miles
     F7#5    Bbmaj7 Fadd4 Bmaj7 Fadd4 Bmaj7
that she has flown
     Ebmaj7
This world is hers alone

Guitar solo:

|----5-5-5------|---------------|---------------|----------|
|-5s7---7--7p5--|-5------7--5---|---------------|----------|
|-------------6-|---------------|---------------|-7p6------|
|---------------|---------------|----7-7-7--9-7-|-----9-7--|
|---------------|---------------|-7s9---9-------|----------|
|---------------|---------------|---------------|----------|

|----5-5-57s9--|-----------|-------------|---------9-----------|
|-5s7---7-------|--------10-|-------------|-------10-10-12-9----|
|---------------|-9s11-9----|-11----------|-9----11---------11-9|
|---------------|-----------|----12p9--11-|--11-12--------------|
|---------------|-----------|---------9---|---------------------|
|---------------|-----------|-------------|---------------------|

|--------------------|------------------|------------------|
|--------------------|------------------|------------------|
|-----9-9h11---------|------------------|------------------|
|-9s11------11-9-7h9-|----7-7h9---------|------------4-7-4-|
|--------------------|-7s9------9-7-5h7-|--------5-7-------|
|--------------------|------------------|-5s7--------------|

|-----------5-6-|-7-------------|---------------|
|-------7-8-----|----9p7--------|---------------|
|----4-7--------|-------------9-|--------11-----|
|-5-7-----------|--------11-9---|-11p9-8--------|
|---------------|---------------|---------------|
|---------------|---------------|---------------|

Far away etc.

-------|------------2--|
-------|-------2-4-5---|
-------|--1-3-4--------|
-------|-4-------------|
-------|---------------|
-------|---------------|

Finally, join the last to chorus's as follows:

   Ebmaj7           F13
Or count the lonely miles
F#13 Bmaj7
Far away   etc
Related for Now And Then tab