Song name
# A B C D E F G H I J K L M N O P Q R S T U V W X Y Z

Silkstone - Always On My Mind tab

LEARNT UST THROUGH LISENING TO THE SONG UM THIS IS MY FIRST TAB SO HOPE YOU LIKE IT.
UM WASNT SURE ON WHAT CHORDS THEY ARE BUT SOUNDS RIGHT.

INTRO

    9--------------------7-|
    10---10-9------------9-|
    11--------11-9-------9-|
    11-------------11----9-|
    9--------------------7-|
    9--------------------7-|

VERSE

    9-9----9----7-7---7---7-7---7---5-5---7-7-|
   10-10---10---9-9---9---7-7---7---5-5---7-7-|
   11-11---11---9-9---9---7-7---7---7-7---9-9-|
   11-11---11---9-9---9---9-9---9---7-7---9-9-|
    9-9----9----7-7---7---9-9---9---5-5---7-7-|
    9-9----9----7-7---7---7-7---7---5-5---7-7-|

CHORUS

    X2
    7-7---7---5-5---5---5-5---5---3-3---3-|
    7-7---7---5-5---5---5-5---5---3-3---3-|
    7-7---7---7-7---7---6-6---6---4-4---4-|
    9-9---9---7-7---7---7-7---7---5-5---5-|
    9-9---9---5-5---5---7-7---7---5-5---5-|
    7-7---7---5-5---5---5-5---5---3-3---3-|

SOLO(only after first chorus)

    9--------------7------------------------------|
   10-10-10-9------9-9-9-7----------7-5-----------|
   11---------11---9-------9--6h7p6-----7-6-4-7-6-|
   11--------------9------------------------------|
    9--------------7------------------------------|
    9--------------7------------------------------|

    9--------------7------------------7--------------|
   10-10-10-9------9-9-9-7---10--9-10---10-9-7-9-5h7-|
   11---------11---9-------9-------------------------|
   11--------------9---------------------------------|
    9--------------7---------------------------------|
    9--------------7---------------------------------|

THEN JUST REPEAT THE VERSE AND CHORUS.

HOPE YOU LIKE IT
Tap to rate this tab
# A B C D E F G H I J K L M N O P Q R S T U V W X Y Z