Song name
# A B C D E F G H I J K L M N O P Q R S T U V W X Y Z

Silver Jews - American Water tab

Highlighted       Show chord diagrams
Chords to American Water

Random Rules
Verse : C Em f (xx3210) C
Chorus: Dm f Dm f Dm f C

Smith and Jones Forever
Verse : Am f , Am f C E
Chorus: G Am (E with toggle)

Federal Dust
Verse : C#m Bb Dm F# E but is probably in another tuning
Chorus: C#m F# E F# E

People
Verse : x02124, x02120 Chorus: E, B7

Baseline is:
|---------------------------------------------------|
|---9----------------7--6---or---7--9---------------|
|----------7--7--6----------------------or---4--2---|
|-7---7--5------------------------------------------|

At the end of the chorus:
G|---6-6-6-6-6----------------|
D|------------------9---------|
A|------------------------7---|

Blue Arrangements
Chords are B, Bmaj7, B7, E, Emaj7, 
Bm7, A, E, B, F# for the first two verses
then E, B, E, B, A, E for the chorus and the tab for that is:

B|---9-7-9-7-9--9-7-9-7-9-12---|

and the chords for the rest of the song are B, x6987x, A, E with this at the end:

A|-2-2-6-6-9-9-14-14-13-13-9-9-6-6-9-9--0-0-4-4-7-7-12-12-11-11-7-7-4-4-7-7-|

Send in the Clouds

Verse : Em, G, D, C, G, D, 
then G,C
Chorus: Fmaj7, C, D, A, E, A.
Malkmus' part at the end is C, C, C#, D, A, 
D, A with f,D,A over and over.

Buckingham Rabbit

Verse : G, f, Em 3x, D, Em twice.
Chorus: Fmaj7, C

Honk If You're Lonely Tonight
Verse : D, E, G, a crazy chord that I think is just B string 3rd fret, D
Chorus: G, A, D, G, D, G, 
G, A, D

The Wild Kindness
Verse : Em, C, C, Em, Em, C, 
G
Chorus: D, Am, C, G, D, Am, 
D, Am, G, D, Am, C

Self-Ignition
Verse 1,2 + solo: ( G, Em, C, D. ) x 3 , 
C, G. Am, C, G, D. Verse 3: ( G, 
C, D. ) x 3 , Am, C, G. Am, C, f, D.

Thanks to Spencer, Ollie, Greg and Jimmy for mailing these chords.
Tap to rate this tab
 
# A B C D E F G H I J K L M N O P Q R S T U V W X Y Z