Song name
# A B C D E F G H I J K L M N O P Q R S T U V W X Y Z

Silverchair - Fix Me tab

Cover Of Black Flags "Fix Me"

(0:00)
e--------------------|---------------------| x2
b--------------------|---------------------|
g-o------------------|-------------------o-|
d-o--7-7-7-7-9-9-9-9-|-7-7-7-7-10--7-10--o-|
a----7-7-7-7-9-9-9-9-|-7-7-7-7-10--7-10----|
e----5-5-5-5-7-7-7-7-|-5-5-5-5-8---5-8-----|

(0:04)
e--------------------|---------------------| x2
b--------------------|---------------------|
g-o------------------|-------------------o-|
d-o--7-7-7-7-9-9-9-9-|-7-7-7-7-10--7-10--o-|
a----7-7-7-7-9-9-9-9-|-7-7-7-7-10--7-10----|
e----5-5-5-5-7-7-7-7-|-5-5-5-5-8---5-8-----|
Go!

(0:10)
e--------------------|---------------------| x4
b--------------------|---------------------|
g-o------------------|-------------------o-|
d-o--7-7-7-7-9-9-9-9-|-7-7-7-7-10--7-10--o-|
a----7-7-7-7-9-9-9-9-|-7-7-7-7-10--7-10----|
e----5-5-5-5-7-7-7-7-|-5-5-5-5-8---5-8-----|
Someday
I'll feel no pain
Someday
I won't have a brain
They'll take away the part that hurts 
And let the rest remain

(0:19)
e-------------------------------|
b-------------------------------|
g-------------------------------|
d-7-7--9-9--9-7-5-7-5-9-7-5-7-5-|
a-5-5--7-7--7-5-3-5-3-7-5-3-5-3-|
e-------------------------------|
Fix me
Fix my head
Fix me please I don't wanna be dead

(0:24)
e--------------------|---------------------| x4
b--------------------|---------------------|
g-o------------------|-------------------o-|
d-o--7-7-7-7-9-9-9-9-|-7-7-7-7-10--7-10--o-|
a----7-7-7-7-9-9-9-9-|-7-7-7-7-10--7-10----|
e----5-5-5-5-7-7-7-7-|-5-5-5-5-8---5-8-----|
Someday
We'll all be rich
Someday
I won't listen to ya bitch
I'll turn up the volume
And you can hear all the shit we play just for you

(0:33)
e-------------------------------|
b-------------------------------|
g-------------------------------|
d-7-7--9-9--9-7-5-7-5-9-7-5-7-5-|
a-5-5--7-7--7-5-3-5-3-7-5-3-5-3-|
e-------------------------------|
Fix me
Fix my head
Fix me please I don't wanna be dead
Fix it
Tap to rate this tab
 
# A B C D E F G H I J K L M N O P Q R S T U V W X Y Z