Song name
# A B C D E F G H I J K L M N O P Q R S T U V W X Y Z

Silverchair - Suicidal Dream tab

Help us improve GuitareTab! Take a short survey!
verse  
e(---------------------------------)
b(---------------------------------)
g(--------4---5------------------4-)
d(------4-------5---------2----4---)
a(--0-2-----------------2----------)
D(----------5-------0-2------4-----)


e(---------------------------------)
b(---------------------------------)
g(--------4---5------------------4-)
d(------4-------5---------2----4---)
a(--0-2-----------------2----------)
D(----------5-------0-2------4-----)

e(---------------------------------)
b(---------------------------------)
g(--------4---5------------------4-)
d(------4-------5---------2----4---)
a(--0-2-----------------2----------)
D(----------5-------0-2------4-----)

e(------------------------)(--0---)
b(------------------------)(--5---)
g(--------4---5-----------)(----4-)
d(------4-------5---------)(------)
a(--0-2-------------------)(------)
D(----------5---------0-2-)(------)

chorus x4  played basically in the same style as the verse
e(-----------------------)
b(-----------------------)
g(----444----------------)
d(----4444-44---222-5-55-)
a(--0-2224-44---222-5-55-)
D(-------4-44-0-222-5-55-)

solo
e(----------------------------------)
b(----3-------------3---------------)
g(------4-2------------4-2----------)
d(-----------4--------------4-5-4-2-)
a(--2-----------5-4-----------------)
D(----------------------------------)

bridge
e(------------------------------)
b(------------------------------)
g(--------4-----7---------------)
d(------4-----7---------5-----4-)
a(--0-2-----5---------5-----4---)
D(----------------0-5-----4-----)

e(------------------------------)
b(------------------------------)
g(--------4-----7---------------)
d(------4-----7---------5-----4-)
a(--0-2-----5---------5-----4---)
D(----------------0-5-----4-----)

e(---------------------------)
b(---------------------------)
g(--------4-----7------------)
d(------4-----7---0-5554-44--)
a(--0-2-----5-----0-5554-44--)
D(----------------0-5554-44--)
Related for Suicidal Dream tab