Silverstein - Sacrifice tab

Tabbed by: Joshua Garcia (halofreak731@aol.com)

Tabs for the song: Sacrifice by Silverstein
Please rate and let me know if you have any corrections. Thank you.

Kinda improvised on the Interlude. Best I could do. This part was actually just thrown in while
recoding, so it's dubbed guitars. As far as I can tell, they don't play it live.
Everything else is perfect.


Tuning:Drop C# (C# G# C# F# A# D#)

Intro
Guitar 1:
D#||---------------------------------------------------------|
A#||---------------------------------------------------------|
F#||---------------------------------------------------------|
C#||-------------------------------------------------7-------|
G#||-000-5-0-0------7---8p7-------000-5-0-0------7-----10-8--|
C#||-000---0-0-7h10---------10----000---0-0-7h10-------------|
     ...   . .                    ...   . .

D#||-----------------------------------------------------|
A#||-----------------------------------------------------|
F#||-----------------------------------------------------|
C#||----------------------------------10-----5555-7777---|
G#||-000-5-0-0------7---8p7-------888----8---5555-7777---|
C#||-000---0-0-7h10---------10----888--------5555-7777---|
     ...   . .                    ...

D#||---------------------------------------------------------|
A#||---------------------------------------------------------|
F#||---------------------------------------------------------|
C#||-------------------------------------------------7-------|
G#||-000-5-0-0------7---8p7-------000-5-0-0------7-----10-8--|
C#||-000---0-0-7h10---------10----000---0-0-7h10-------------|
     ...   . .                    ...   . .

D#||-----------------------------------------------|
A#||-----------------------------------------------|
F#||-----------------------------------------------|
C#||-----5----------------------8888888877777777---|
G#||-000---0-0------7---8p7-----8888888877777777---|
C#||-000---0-0-7h10---------10--8888888877777777---|
     ...   . .


Guitar 2:
D#||---------------------|-------------------------|
A#||---------------------|-------------------------|
F#||---------------------|-------------------------|
C#||--0000---0---0---x3--|------10-----5555-7777---|
G#||--0000---0---0-------|--888----8---5555-7777---|
C#||--0000---0---0-------|--888--------5555-7777---|
      ....   .   .          ...

D#||---------------------|---------------------------------------------------|
A#||---------------------|---------------------------------------------------|
F#||---------------------|--10-10-10-10-10-10-10-10-12-12-12-12-12-12-12-12--|
C#||--0000---0---0---x3--|--x--x--x--x--x--x--x--x--x--x--x--x--x--x--x--x---|
G#||--0000---0---0-------|--8--8--8--8--8--8--8--8--10-10-10-10-10-10-10-10--|
C#||--0000---0---0-------|---------------------------------------------------|
      ....   .   .


Verse
Guitar 1:
D#||-----------------------|-----------------------|
A#||-----------------------|-----------------------|
F#||---------10---9----10--|---------10---9----10--|
C#||--0000---x----x----x---|--8888---x----x----x---|
G#||--0000---8----7----8---|--8888---8----7----8---|
C#||--0000-----------------|--8888-----------------|


D#||---------------------------|------------------|
A#||---------------------------|------------------|
F#||-------------10---9----10--|------------------| x2
C#||--10101010---x----x----x---|--11111111---11~--|
G#||--10101010---8----7----8---|--11111111---11~--|
C#||--10101010-----------------|--11111111---11~--|
                                 (^ 11's)

Guitar 2:
D#||-----------------------|-----------------------|
A#||-----------------------|-----------------------|
F#||-----------------------|---------14---12---14--|
C#||-----------------------|--8888---x----x----x---|
G#||-----------------------|--8888---12---10---12--|
C#||-----------------------|--8888-----------------|


D#||---------------------------|----------------------------|
A#||---------------------------|----------------------------|
F#||-------------10---9----10--|-------------14~--12-10-10--|
C#||--10101010---x----x----x---|--11111111---x----x--x--x---|
G#||--10101010---8----7----8---|--11111111---12~--10-8--8---|
C#||--10101010-----------------|--11111111------------------|

D#||-----------------------|-----------------------|
A#||-----------------------|-----------------------|
F#||-----------------------|---------14---12---14--|
C#||-----------------------|--8888---x----x----x---|
G#||-----------------------|--8888---12---10---12--|
C#||-----------------------|--8888-----------------|


D#||---------------------------|------------------|
A#||---------------------------|------------------|
F#||-------------10---9----10--|-------------14~--|
C#||--10101010---x----x----x---|--11111111---x----|
G#||--10101010---8----7----8---|--11111111---12~--|
C#||--10101010-----------------|--11111111--------|


Chorus
Guitar 1:
D#||------------------------------------------------------|
A#||------------------------------------------------------|
F#||------------------------------------------------------|
C#||-12-1212-1212-12-1212-1212-11-1111-1111-11-1111-1111--|
G#||-12-1212-1212-12-1212-1212-11-1111-1111-11-1111-1111--|
C#||-12-1212-1212-12-1212-1212-11-1111-1111-11-1111-1111--|


D#||-----------------------------------------------|
A#||-----------------------------------------------|
F#||-----------------------------------------------|
C#||--10-1010-1010-10-1010-1010-8-88-888-7-77-777--|
G#||--10-1010-1010-10-1010-1010-8-88-888-7-77-777--|
C#||--10-1010-1010-10-1010-1010-8-88-888-7-77-777--|


D#||------------------------------------------------------|
A#||------------------------------------------------------|
F#||------------------------------------------------------|
C#||-12-1212-1212-12-1212-1212-11-1111-1111-11-1111-1111--|
G#||-12-1212-1212-12-1212-1212-11-1111-1111-11-1111-1111--|
C#||-12-1212-1212-12-1212-1212-11-1111-1111-11-1111-1111--|


D#||-------------------------------------|
A#||-------------------------------------|
F#||-------------------------------------|
C#||--10-1010-1010-10-1010-1010--8----7--|
G#||--10-1010-1010-10-1010-1010--8----7--|
C#||--10-1010-1010-10-1010-1010--8----7--|


Guitar 2:
D#||------------------------------------------------------|
A#||------------------------------------------------------|
F#||-14-1414-1414-14-1414-1414-14-1414-1414-14-1414-1414--|
C#||-x--x-x--x-x--x--x-x--x-x--x--x-x--x-x--x--x-x--x-x---|
G#||-12-1212-1212-12-1212-1212-12-1212-1212-12-1212-1212--|
C#||------------------------------------------------------|


D#||--------------------------------------------|
A#||--------------------------------------------|
F#||-12-1212-1212-12-1212-1212-7-77-77-6-66-66--|
C#||-x--x-x--x-x--x--x-x--x-x--x-xx-xx-x-xx-xx--|
G#||-10-1010-1010-10-1010-1010-5-55-55-4-44-44--|
C#||--------------------------------------------|


D#||------------------------------------------------------|
A#||------------------------------------------------------|
F#||-14-1414-1414-14-1414-1414-14-1414-1414-14-1414-1414--|
C#||-x--x-x--x-x--x--x-x--x-x--x--x-x--x-x--x--x-x--x-x---|
G#||-12-1212-1212-12-1212-1212-12-1212-1212-12-1212-1212--|
C#||------------------------------------------------------|


D#||------------------------------------|
A#||------------------------------------|
F#||-12-1212-1212-12-1212-1212----------|
C#||-x--x-x--x-x--x--x-x--x-x---8----7--|
G#||-10-1010-1010-10-1010-1010--8----7--|
C#||----------------------------8----7--|



Pre-Verse
Guitar 1:
D#||---------------------------------------------------------|
A#||---------------------------------------------------------|
F#||---------------------------------------------------------|
C#||-------------------------------------------------7-------|
G#||-000-5-0-0------7---8p7-------000-5-0-0------7-----10-8--|
C#||-000---0-0-7h10---------10----000---0-0-7h10-------------|
     ...   . .                    ...   . .

D#||-----------------------------------------------|
A#||-----------------------------------------------|
F#||-----------------------------------------------|
C#||-----5----------------------8888888877777777---|
G#||-000---0-0------7---8p7-----8888888877777777---|
C#||-000---0-0-7h10---------10--8888888877777777---|
     ...   . .


Guitar 2:
D#||---------------------|---------------------------------------------------|
A#||---------------------|---------------------------------------------------|
F#||---------------------|--10-10-10-10-10-10-10-10-12-12-12-12-12-12-12-12--|
C#||--0000---0---0---x3--|--x--x--x--x--x--x--x--x--x--x--x--x--x--x--x--x---|
G#||--0000---0---0-------|--8--8--8--8--8--8--8--8--10-10-10-10-10-10-10-10--|
C#||--0000---0---0-------|---------------------------------------------------|
      ....   .   .


Verse
Guitar 1:
D#||-----------------------|-----------------------|
A#||-----------------------|-----------------------|
F#||---------10---9----10--|---------10---9----10--|
C#||--0000---x----x----x---|--8888---x----x----x---|
G#||--0000---8----7----8---|--8888---8----7----8---|
C#||--0000-----------------|--8888-----------------|


D#||---------------------------|------------------|
A#||---------------------------|------------------|
F#||-------------10---9----10--|------------------| x2
C#||--10101010---x----x----x---|--11111111---11~--|
G#||--10101010---8----7----8---|--11111111---11~--|
C#||--10101010-----------------|--11111111---11~--|


Guitar 2:
D#||-----------------------|-----------------------|
A#||-----------------------|-----------------------|
F#||-----------------------|---------14---12---14--|
C#||-----------------------|--8888---x----x----x---|
G#||-----------------------|--8888---12---10---12--|
C#||-----------------------|--8888-----------------|


D#||---------------------------|----------------------------|
A#||---------------------------|----------------------------|
F#||-------------10---9----10--|-------------14~--12-10-10--|
C#||--10101010---x----x----x---|--11111111---x----x--x--x---|
G#||--10101010---8----7----8---|--11111111---12~--10-8--8---|
C#||--10101010-----------------|--11111111------------------|


D#||-----------------------|-----------------------|
A#||-----------------------|-----------------------|
F#||-----------------------|---------14---12---14--|
C#||-----------------------|--8888---x----x----x---|
G#||-----------------------|--8888---12---10---12--|
C#||-----------------------|--8888-----------------|


D#||---------------------------|------------------|
A#||---------------------------|------------------|
F#||-------------10---9----10--|-------------14~--|
C#||--10101010---x----x----x---|--11111111---x----|
G#||--10101010---8----7----8---|--11111111---12~--|
C#||--10101010-----------------|--11111111--------|



Chorus
Guitar 1:
D#||------------------------------------------------------|
A#||------------------------------------------------------|
F#||------------------------------------------------------|
C#||-12-1212-1212-12-1212-1212-11-1111-1111-11-1111-1111--|
G#||-12-1212-1212-12-1212-1212-11-1111-1111-11-1111-1111--|
C#||-12-1212-1212-12-1212-1212-11-1111-1111-11-1111-1111--|


D#||-----------------------------------------------|
A#||-----------------------------------------------|
F#||-----------------------------------------------|
C#||--10-1010-1010-10-1010-1010-8-88-888-7-77-777--|
G#||--10-1010-1010-10-1010-1010-8-88-888-7-77-777--|
C#||--10-1010-1010-10-1010-1010-8-88-888-7-77-777--|


D#||------------------------------------------------------|
A#||------------------------------------------------------|
F#||------------------------------------------------------|
C#||-12-1212-1212-12-1212-1212-11-1111-1111-11-1111-1111--|
G#||-12-1212-1212-12-1212-1212-11-1111-1111-11-1111-1111--|
C#||-12-1212-1212-12-1212-1212-11-1111-1111-11-1111-1111--|


D#||---------------------------------------------------|
A#||---------------------------------------------------|
F#||---------------------------------------------------|
C#||--10-1010-1010-10-1010-1010--8~---7~---0~-----14\--|
G#||--10-1010-1010-10-1010-1010--8~---7~---0~-----14\--|
C#||--10-1010-1010-10-1010-1010--8~---7~---0~-----14\--|


Guitar 2:
D#||------------------------------------------------------|
A#||------------------------------------------------------|
F#||-14-1414-1414-14-1414-1414-14-1414-1414-14-1414-1414--|
C#||-x--x-x--x-x--x--x-x--x-x--x--x-x--x-x--x--x-x--x-x---|
G#||-12-1212-1212-12-1212-1212-12-1212-1212-12-1212-1212--|
C#||------------------------------------------------------|


D#||--------------------------------------------|
A#||--------------------------------------------|
F#||-12-1212-1212-12-1212-1212-7-77-77-6-66-66--|
C#||-x--x-x--x-x--x--x-x--x-x--x-xx-xx-x-xx-xx--|
G#||-10-1010-1010-10-1010-1010-5-55-55-4-44-44--|
C#||--------------------------------------------|


D#||------------------------------------------------------|
A#||------------------------------------------------------|
F#||-14-1414-1414-14-1414-1414-14-1414-1414-14-1414-1414--|
C#||-x--x-x--x-x--x--x-x--x-x--x--x-x--x-x--x--x-x--x-x---|
G#||-12-1212-1212-12-1212-1212-12-1212-1212-12-1212-1212--|
C#||------------------------------------------------------|


D#||--------------------------------------------------|
A#||--------------------------------------------------|
F#||-12-1212-1212-12-1212-1212------------------------|
C#||-x--x-x--x-x--x--x-x--x-x---8~---7~---0~----------|
G#||-10-1010-1010-10-1010-1010--8~---7~---0~----------|
C#||----------------------------8~---7~---0~-----14\--|



Breakdown
Guitar 1/2:
D#||-------------------------------------|-------------------------------------|
A#||-------------------------------------|-------------------------------------|
F#||-------------------------------------|-------------------------------------|
C#||-------------------------------------|-----------------------------7-------|
G#||-000-5-0-00-----000-5-0-00--------7--|-000-5-0-00-----000-5-0-00-----10-8--|
C#||-000---0-00-----000---0-00---7h10----|-000---0-00-----000---0-00-----------|
     ...   . ..     ...   . ..             ...   . ..     ...   . ..

Guitar 1:
D#||---------------------------------------------------------|
A#||---------------------------------------------------------|
F#||---------------------------------------------------------| x2
C#||-------------------------------------------------7-------|
G#||-000-5-0-0------7---8p7-------000-5-0-0------7-----10-8--|
C#||-000---0-0-7h10---------10----000---0-0-7h10-------------|
     ...   . .                    ...   . .

Guitar 2:
D#||----------------|
A#||----------------|
F#||----------------|
C#||--0000---0---0--| x4
G#||--0000---0---0--|
C#||--0000---0---0--|
      ....   .   .


Bridge
Guitar 1/2:
D#||-----------------------------------------------------------------|
A#||-----------------------------------------------------------------|
F#||-----------------------------------------------------------------| x2
C#||--0~----00~--0-0--3----33~--3-3--5~----55~--5-5--8888-10101010---|
G#||--0~----00~--0-0--3----33~--3-3--5~----55~--5-5--8888-10101010---|
C#||--0~----00~--0-0--3----33~--3-3--5~----55~--5-5--8888-10101010---|



Interlude
Guitar 1:
D#||---------------------------------------------------|
A#||-------------13----------------------13------------|
F#||-------12-14----14-12----------12-14----12-14------|
C#||-12-15----------------15-12-15----------------15---|
G#||---------------------------------------------------|
C#||---------------------------------------------------|


D#||---------------------------|
A#||----------13---------------|
F#||----14-15----15-14-12------|
C#||-12-------------------15---|
G#||---------------------------|
C#||---------------------------|


D#||---------------------------|
A#||---------------------------|
F#||--14----------15-----------| x2
C#||-----15-12-15----15-12-15--|
G#||---------------------------|
C#||---------------------------|


Guitar 2:
D#||---------------------------------------------------|
A#||---------------------------------------------------|
F#||----14-12-14-12-------------14-12-14-12------------|
C#||-12-------------15-14-15-12-------------15-14-15---|
G#||---------------------------------------------------|
C#||---------------------------------------------------|


D#||--------------------------|
A#||-------13-15-13-----------|
F#||----15----------15-14-15--|
C#||-12-----------------------|
G#||--------------------------|
C#||--------------------------|


D#||--13----------12------------|
A#||-----15-13-15----15-13-15---|
F#||----------------------------| x2
C#||----------------------------|
G#||----------------------------|
C#||----------------------------|


Guitar 1/2 (dubbed):
D#||-----------------------------------------------------------------|
A#||-----------------------------------------------------------------|
F#||-----------------------------------------------------------------|
C#||--0~----00~--0-0--3----33~--2-3--5~----55~--5-5--8888-10101010---|
G#||--0~----00~--0-0--3----33~--2-3--5~----55~--5-5--8888-10101010---|
C#||--0~----00~--0-0--3----33~--2-3--5~----55~--5-5--8888-10101010---|
                                . .

D#||-----------------------------------------------------------------|
A#||-----------------------------------------------------------------|
F#||-----------------------------------------------------------------|
C#||--0~----00~--0-0--3----33~--3-3--5~----55~--5-5--8888-10101010---|
G#||--0~----00~--0-0--3----33~--3-3--5~----55~--5-5--8888-10101010---|
C#||--0~----00~--0-0--3----33~--3-3--5~----55~--5-5--8888-10101010---|


Guitar 1:
D#||--------------------------------------|
A#||--------------------------------------|
F#||--------------------------------------|
C#||--8--8--88--8--810--10--1010--10--10--|
G#||--8--8--88--8--810--10--1010--10--10--|
C#||--8--8--88--8--810--10--1010--10--10--|



Chorus
Guitar 1:
D#||------------------------------------------------------|
A#||------------------------------------------------------|
F#||------------------------------------------------------|
C#||-12-1212-1212-12-1212-1212-11-1111-1111-11-1111-1111--|
G#||-12-1212-1212-12-1212-1212-11-1111-1111-11-1111-1111--|
C#||-12-1212-1212-12-1212-1212-11-1111-1111-11-1111-1111--|


D#||-----------------------------------------------|
A#||-----------------------------------------------|
F#||-----------------------------------------------|
C#||--10-1010-1010-10-1010-1010-8-88-888-7-77-777--|
G#||--10-1010-1010-10-1010-1010-8-88-888-7-77-777--|
C#||--10-1010-1010-10-1010-1010-8-88-888-7-77-777--|


D#||------------------------------------------------------|
A#||------------------------------------------------------|
F#||------------------------------------------------------|
C#||-12-1212-1212-12-1212-1212-11-1111-1111-11-1111-1111--|
G#||-12-1212-1212-12-1212-1212-11-1111-1111-11-1111-1111--|
C#||-12-1212-1212-12-1212-1212-11-1111-1111-11-1111-1111--|


D#||--------------------------------------|
A#||--------------------------------------|
F#||--------------------------------------|
C#||--10-1010-1010-10-1010-1010--8~---7~--|
G#||--10-1010-1010-10-1010-1010--8~---7~--|
C#||--10-1010-1010-10-1010-1010--8~---7~--|


Guitar 2:
D#||------------------------------------------------------|
A#||------------------------------------------------------|
F#||-14-1414-1414-14-1414-1414-14-1414-1414-14-1414-1414--|
C#||-x--x-x--x-x--x--x-x--x-x--x--x-x--x-x--x--x-x--x-x---|
G#||-12-1212-1212-12-1212-1212-12-1212-1212-12-1212-1212--|
C#||------------------------------------------------------|


D#||--------------------------------------------|
A#||--------------------------------------------|
F#||-12-1212-1212-12-1212-1212-7-77-77-6-66-66--|
C#||-x--x-x--x-x--x--x-x--x-x--x-xx-xx-x-xx-xx--|
G#||-10-1010-1010-10-1010-1010-5-55-55-4-44-44--|
C#||--------------------------------------------|


D#||------------------------------------------------------|
A#||------------------------------------------------------|
F#||-14-1414-1414-14-1414-1414-14-1414-1414-14-1414-1414--|
C#||-x--x-x--x-x--x--x-x--x-x--x--x-x--x-x--x--x-x--x-x---|
G#||-12-1212-1212-12-1212-1212-12-1212-1212-12-1212-1212--|
C#||------------------------------------------------------|


D#||-------------------------------------|
A#||-------------------------------------|
F#||-12-1212-1212-12-1212-1212-----------|
C#||-x--x-x--x-x--x--x-x--x-x---8~---7~--|
G#||-10-1010-1010-10-1010-1010--8~---7~--|
C#||----------------------------8~---7~--|



Outro
Guitar 1:
D#||----------------------------------|
A#||----------------------------------|
F#||----------------------------------|
C#||------------------------------0---|
G#||-000-5-0-0------7---8p7-------0---|
C#||-000---0-0-7h10---------10----0---|
     ...   . .

Guitar 2:
D#||-----------------|-------|
A#||-----------------|-------|
F#||-----------------|-------|
C#||--0000---0---0---|---0---|
G#||--0000---0---0---|---0---|
C#||--0000---0---0---|---0---|
      ....   .   .





Tablature Legend
----------------
 h   - hammer-on
 p   - pull-off
 b   - bend
 r   - release bend
 *   - pinch harmonic
 '   - natural harmonic
 x   - mute note
 .   - palm mute
 /   - slide down
 \   - slide up
Tap to rate this tab
 
# A B C D E F G H I J K L M N O P Q R S T U V W X Y Z