Song name
# A B C D E F G H I J K L M N O P Q R S T U V W X Y Z

Simone - White Christmas tab

-----------------------------------------------------------
		      White Christmas
-----------------------------------------------------------

By: Carolina ( mad_carol@yeayea.com )

e|------------------|--------------------|----------------|
B|------------------|--------------------|----------------|
G|-2-3-2-1-2-3--4-5-|-7-9-10-12-10-9-7-5-|-----2-2-7-5----|
D|------------------|--------------------|-3-5------------|
A|------------------|--------------------|----------------|
E|------------------|--------------------|----------------|

e|------------------------|------------------|
B|------------------------|------------------|
G|-------5-3-2--3-2-------|-14/12/10/9/7/5/3-|
D|-3-3-3------------5-3-5-|------------------|
A|------------------------|------------------|
E|------------------------|------------------|

repeat

===========================================================
It may be a "useless" song. I tabbed just for fun... 
anyway... mistakes, sugestions, whatever: email me
===========================================================
Tap to rate this tab
# A B C D E F G H I J K L M N O P Q R S T U V W X Y Z