Song name
# A B C D E F G H I J K L M N O P Q R S T U V W X Y Z

Simple Plan - Promise tab

---9-------------------------------------------------------------------|
---10-full-------------------6-----------------------------------------|
--------------8--6-----------6------------------------6---8--6----8----|
--------------------8---8---------8---------------6--------------------|
--------------------------------------------8---9----------------------|
-----------------------------------------------------------------------|

This Parts kinda Hard,gotta play it extreamly fast.

-------------------------------------------------9---11----9--------13--|
---------------------------------6-----6----11-----------------11-------|
--------------6----6--8---6--8-------8----------------------------------|
---8---6--8-----8-------------------------------------------------------|
------------------------------------------------------------------------|
------------------------------------------------------------------------|

The Next Parts are nice and simple just play along.

---------------------------------------------------------------------------|
--9--------9--------9--------11---9------9--------11----9--------13--------|
-----10--------10-------10-----------10------10-------------10-------------|
---------------------------------------------------------------------------|
---------------------------------------------------------------------------|
---------------------------------------------------------------------------|

The rest is soon to come hope you found this helpfull,


The Great La La
Tap to rate this tab
 
# A B C D E F G H I J K L M N O P Q R S T U V W X Y Z