Guitaretab - guitar tabs
Song name
# A B C D E F G H I J K L M N O P Q R S T U V W X Y Z

Simple Plan - Jet Lag tab

The First Single From Simple PLan New Album 
Jet lag.
Enjoy The Tabs if there is anything to correct please let me know!

Intro (Gutiar 1) :

e|---------------------------------------------11---------------------|
B|----12----12-11----11-12-----12--14------14--------14---------------| 
G|-------11-------11--------11----------11--------11----11------------|  x2
D|--------------------------------------------------------------------|   
A|--------------------------------------------------------------------|
E|--------------------------------------------------------------------|

(When you hit the 11 note at the end right after this reapeat to the whole thing from the start)

intro (Guitar 2):

e|--------------------|
B|--------------------|
G|----4-~-------------|
D|----4-~----4-~---2--|
A|----2--~---4-~---2--|
E|-----------2-~---0--|

Verser (Guitar 1+2)

e|-------------------------------------------------------------|
B|-------------------------------------------------------------|
G|----4-4-4-4-4-4-4-4------------------------------------------|
D|----4-4-4-4-4-4-4-4---4-4-4-4-4-4-4-4---2-2-2-2-2-2-2-2-2----| x2
A|----2-2-2-2-2-2-2-2---4-4-4-4-4-4-4-4---2-2-2-2-2-2-2-2-2----|
E|----------------------2-2-2-2-2-2-2-2---0-0-0-0-0-0-0-0-0----|
      **********************************************************

per Chours (Guitar 1+2)
[ Tab from: http://www.guitaretab.com/s/simple-plan/275017.html ]
e|-------------------------------------------------------------------------|
B|-------------------------------------------------------------------------|
G|-------------------------------------------------------------------------|
D|--6-6-6-6-6-6-6-6-6-6--2-2-2-2-2-2-2-2-2--6-6-6-6-6-6-6-6--4-4-4-4-4-4-4-|
A|--6-6-6-6-6-6-6-6-6-6--2-2-2-2-2-2-2-2-2--6-6-6-6-6-6-6-6--4-4-4-4-4-4-4-|
E|--4-4-4-4-4-4-4-4-4-4--0-0-0-0-0-0-0-0-0--4-4-4-4-4-4-4-4--2-2-2-2-2-2-2-|
    ********************************************************************

Chours part 1 (Guitar 1+2):

e|----------------------------------------|
B|----------------------------------------|
G|----4-----------------------------------|
D|----4--x8---2----------6---------4------|  x2
A|----2-------2---x8-----6--x8-----4--x8--|
E|------------0----------4---------2------|

Chours Part 2 (Guitar 2 )
 
     Heart Heart...
e|------------------------------------------|
B|------------------------------------------|
G|----4--4--4-------------------------------|
D|----4--4--4--2-2--2-2---6-6-6---4-4--4-4--| x2    figure the rythym :)
A|----2--2--2--2-2--2-2---6-6-6---4-4--4-4--|
E|-------------0-0--0-0---4-4-4---2-2--2-2--|

Guitar 1:
e|---------------------------------------------11---------------------|
B|----12----12-11----11-12-----12--14------14--------14---------------| 
G|-------11-------11--------11----------11--------11----11------------|  x2
D|--------------------------------------------------------------------|   
A|--------------------------------------------------------------------|
E|--------------------------------------------------------------------|

Then Reapet The Intro But One Time.

verse The same.
Per Chours The same.
Chours the same.

Bridge no many guitars but you can do this :

e|-----------------------------|
B|-----------------------------|
G|-----------------------------|  do tihs until the chours come.
D|-----------------------------|
A|----2-~----------------------|
E|-----------0---let it ring---|


Then Do Then Chours 4 times.



Finsh with:

e|----------------------------------|
B|----------------------------------|
G|----4-~---------------------------|
D|----4-~---4~-----2----------------|
A|----2-~---4-~----2--let it ring---|
E|----------2-~----0----------------|
Related for Jet Lag tab
Jet Lag chords by Simple Plan