Song name
# A B C D E F G H I J K L M N O P Q R S T U V W X Y Z

Simple Plan - Jump tab

Song: Jump
Band: Simple Plan
Tunning: 1/2 step down


Intro 
eb|----------------------------------------|
Bb|----------------------------------------|
Gb|------13--------13-------13------14/13--|
Db|-2-2--x--2-2-2--x---7-7--x---9-9-x-/-x--| x2
Ab|-2-2--11-2-2-2--11--7-7--11--9-9-12/11--|
Eb|-0-0-----0-0-0------5-5------7-7--------|

Guitar 1 cont. intro and guitar 2 play this:

eb|------------------------------------------------------------------|  |---|
Bb|------------------------------------------------------------------|  |---|
Gb|-X--x--13-x--x--13-x--x--13-x--x--13-x-x-9-x-x-9-x-x-11-x-x-14-13-|  |\9~|
Db|-X--x--x--x--x--x--x--x--x--x--x--x--x-x-x-x-x-x-x-x-x--x-x-x--x--|x2|-x-| end.
Ab|-11-11-11-11-11-11-11-11-11-11-11-11-7-7-7-7-7-7-9-9-9--9-9-12-11-|  |\7~|
Eb|------------------------------------------------------------------|  |---|
pm   . .      . .      . .      . .     . .   . .   . .    . .

Verse Guitar 1:

eb|-----------------------------------|
Bb|-----------------------------------|
Gb|-----------------------------------|
Db|-2-2-2-2-2-2-2-2--7-7-7-7--9-9-9-9-| x2
Ab|-2-2-2-2-2-2-2-2--7-7-7-7--9-9-9-9-|
Eb|-0-0-0-0-0-0-0-0--5-5-5-5--7-7-7-7-|
pm  . . . . . . . .   . . .   . . . . 

Cont. guitar 1:

eb|-------------------------------------------------|
Bb|-------------------------------------------------|
Gb|-------------------------------------------------|
Db|-7-7-7-7-7-7-7-7-7-7-7-7-9-9-9-9-9-9-9-9-9-9-9-9-| 2x
Ab|-7-7-7-7-7-7-7-7-7-7-7-7-9-9-9-9-9-9-9-9-9-9-9-9-|
Eb|-5-5-5-5-5-5-5-5-5-5-5-5-7-7-7-7-7-7-7-7-7-7-7-7-|
pm  . .   . .   . .   . .   . .   . .   . .   . .

Cont. Guitar 2:

eb|-------------------...
Bb|-------------------...
Gb|-9-9-9-9-9-9-9-9-9-...
Db|-x-x-x-x-x-x-x-x-x-...
Ab|-7-7-7-7-7-7-7-7-7-...
Eb|-------------------...
pm  . .   . .   . .

Chorus:

eb|----------------------------------------|
Bb|----------------------------------------|
Gb|------13--------13-------13------14/13--|
Db|-2-2--x--2-2-2--x---7-7--x---9-9-x-/-x--| x3
Ab|-2-2--11-2-2-2--11--7-7--11--9-9-12/11--|
Eb|-0-0-----0-0-0------5-5------7-7--------|

cont. chorus:

eb|-------------------------------------------------|
Bb|-------------------------------------------------|
Gb|-------------------------------------------------|
Db|-7-7-7-7-7-7-7-7-7-7-7-7-9-9-9-9-9-9-9-9-9-9-9-9-| 2x
Ab|-7-7-7-7-7-7-7-7-7-7-7-7-9-9-9-9-9-9-9-9-9-9-9-9-|
Eb|-5-5-5-5-5-5-5-5-5-5-5-5-7-7-7-7-7-7-7-7-7-7-7-7-|

Outro

eb|-------------------------------------------------|
Bb|-------------------------------------------------|
Gb|-------------------------------------------------|
Db|---2~~------------2-2--2-2--2-2------------------|
Ab|---2~~------------2-2--2-2--2-2------------------|
Eb|---0~~------------0-0--0-0--0-0------------------|

Verse Guitar 1:

eb|-----------------------------------|
Bb|-----------------------------------|
Gb|-----------------------------------|
Db|-2-2-2-2-2-2-2-2--7-7-7-7--9-9-9-9-| x2
Ab|-2-2-2-2-2-2-2-2--7-7-7-7--9-9-9-9-|
Eb|-0-0-0-0-0-0-0-0--5-5-5-5--7-7-7-7-|
pm  . . . . . . . .   . . .   . . . . 

Cont. guitar 1:

eb|-------------------------------------------------|
Bb|-------------------------------------------------|
Gb|-------------------------------------------------|
Db|-7-7-7-7-7-7-7-7-7-7-7-7-9-9-9-9-9-9-9-9-9-9-9-9-| 2x
Ab|-7-7-7-7-7-7-7-7-7-7-7-7-9-9-9-9-9-9-9-9-9-9-9-9-|
Eb|-5-5-5-5-5-5-5-5-5-5-5-5-7-7-7-7-7-7-7-7-7-7-7-7-|
pm  . .   . .   . .   . .   . .   . .   . .   . .

Cont. Guitar 2:

eb|-------------------...
Bb|-------------------...
Gb|-9-9-9-9-9-9-9-9-9-...
Db|-x-x-x-x-x-x-x-x-x-...
Ab|-7-7-7-7-7-7-7-7-7-...
Eb|-------------------...
pm  . .   . .   . .

Chorus:

eb|----------------------------------------|
Bb|----------------------------------------|
Gb|------13--------13-------13------14/13--|
Db|-2-2--x--2-2-2--x---7-7--x---9-9-x-/-x--| x3
Ab|-2-2--11-2-2-2--11--7-7--11--9-9-12/11--|
Eb|-0-0-----0-0-0------5-5------7-7--------|

cont. chorus:

eb|-------------------------------------------------|
Bb|-------------------------------------------------|
Gb|-------------------------------------------------|
Db|-7-7-7-7-7-7-7-7-7-7-7-7-9-9-9-9-9-9-9-9-9-9-9-9-| 2x
Ab|-7-7-7-7-7-7-7-7-7-7-7-7-9-9-9-9-9-9-9-9-9-9-9-9-|
Eb|-5-5-5-5-5-5-5-5-5-5-5-5-7-7-7-7-7-7-7-7-7-7-7-7-|

-------------------------------------------------------------
Solo part:

Guitar 1:

eb|-0202020204040505020502040205-|
Bb|------------------------------|
Gb|------------------------------|
Db|------------------------------| 2x
Ab|------------------------------|
Eb|------------------------------|

Guitar 2:

eb|-----------------------------------|
Bb|-----------------------------------|
Gb|-----------------------------------|
Db|-2~~--------97~~-------------------| 2x
Ab|-2~~--------97~~-------------------|
Eb|-0~~--------75~~-------------------|

Cont Guitar 1:

eb|--------------------------------------------------------------|
Bb|--------------------------------------------------------------|
Gb|-9999999999991111199999999999913131313777141414131313111111999|
Db|-xxxxxxxxxxxxx-xx-xxxxxxxxxxxxxxxxxxxxxxxxxxxxxxxxxxxx-x-x-xxx|
Ab|-7777777777779 9 9777777777777111111119991212121111119 9 9 777|
Eb|--------------------------------------------------------------|

Cont Guitar 2:

eb|------------------------------------------------------------|
Bb|------------------------------------------------------------|
Gb|------------------------------------------------------------|
Db|-2-2-2-2-2-2-2-2-2-9-9-9-7-7-7-7-7-7-7-7-7-7-7-7------------| 2x
Ab|-2-2-2-2-2-2-2-2-2-9-9-9-7-7-7-7-7-7-7-7-7-7-7-7------------|
Eb|-0-0-0-0-0-0-0-0-0-7-7-7-5-5-5-5-5-5-5-5-5-5-5-5------------|
pm  . .   . .   . .   . .   . .   . .   . .   . .

Guitar 1:

eb|------------------------------------------------------------|
Bb|------------------------------------------------------------|
Gb|------------------------------------------------------------|
Db|------------------------------------------------------------| 2x
Ab|-7-7-7-7-7-7-7-7-7-7-7-7-7-7-7-7-7-7-7-7-7-7-7-7-7-7-7-7-7-7|
Eb|------------------------------------------------------------|
pm  . . . . . . . . . . . . . . . . . . . . . . . . . . . . . .

Chorus:

eb|----------------------------------------|
Bb|----------------------------------------|
Gb|------13--------13-------13------14/13--|
Db|-2-2--x--2-2-2--x---7-7--x---9-9-x-/-x--| x3
Ab|-2-2--11-2-2-2--11--7-7--11--9-9-12/11--|
Eb|-0-0-----0-0-0------5-5------7-7--------|

cont. chorus:

eb|-------------------------------------------------|
Bb|-------------------------------------------------|
Gb|-------------------------------------------------|
Db|-7-7-7-7-7-7-7-7-7-7-7-7-9-9-9-9-9-9-9-9-9-9-9-9-| 4x
Ab|-7-7-7-7-7-7-7-7-7-7-7-7-9-9-9-9-9-9-9-9-9-9-9-9-|
Eb|-5-5-5-5-5-5-5-5-5-5-5-5-7-7-7-7-7-7-7-7-7-7-7-7-|

Intro 
eb|----------------------------------------|
Bb|----------------------------------------|
Gb|------13--------13-------13------14/13--|
Db|-2-2--x--2-2-2--x---7-7--x---9-9-x-/-x--| x2
Ab|-2-2--11-2-2-2--11--7-7--11--9-9-12/11--|
Eb|-0-0-----0-0-0------5-5------7-7--------|

Guitar 1 cont. intro and guitar 2 play this:

eb|------------------------------------------------------------------|  
Bb|------------------------------------------------------------------|  
Gb|-X--x--13-x--x--13-x--x--13-x--x--13-x-x-9-x-x-9-x-x-11-x-x-14-13-|  
Db|-X--x--x--x--x--x--x--x--x--x--x--x--x-x-x-x-x-x-x-x-x--x-x-x--x--|x2
Ab|-11-11-11-11-11-11-11-11-11-11-11-11-7-7-7-7-7-7-9-9-9--9-9-12-11-| 
Eb|------------------------------------------------------------------| 
pm   . .      . .      . .      . .     . .   . .   . .    . .

End Note (both guitars)

eb|---|
Bb|---|
Gb|---|
Db|-2-|
Ab|-2-|
Eb|-0-|

Tap to rate this tab
# A B C D E F G H I J K L M N O P Q R S T U V W X Y Z