Song name
# A B C D E F G H I J K L M N O P Q R S T U V W X Y Z

Simple Plan - Meet You There tab

Help us improve GuitareTab! Take a short survey!
Highlighted       Show chord diagrams
meet you there - simple plan




intro:

   c              f

E\----------------\----------------\
B\-0-0-0-1-1-1-1--\----------------\
G\----------------\----------------\
D\----------------\-2-2-2-3-3-3-3--\
A\----------------\----------------\
E\----------------\----------------\

verse:

   c              f                     
E\----------------\----------------\ 
B\-0-0-0-1-1-1-1--\----------------\
G\----------------\----------------\ *4
D\----------------\-2-2-2-3-3-3-3--\
A\----------------\----------------\
E\----------------\----------------\

now you're gone I wonder why....

pre chours:

   am              g                     
    
   f               c 
    
your gone away....


   am              g                     
    
   f               c 
    
move'in on....

chours:

   c,f,g*2


verse,pre chours,chours

solo:


f,am,c,g *8

i'll meet you there!!!


bridge:
(im not sure about it)

c,f,c *2

solo(1 time)

choures


  

Related for Meet You There tab