Song name
# A B C D E F G H I J K L M N O P Q R S T U V W X Y Z

Simply Red - Night Nurse tab

-------------------------------------------------------------------------------
                              Simply Red - Night Nurse
-------------------------------------------------------------------------------
Tabbed by: Ash
Tuning: Standard EADGBe

Guitar Rythm

Am / G

e|--5----5----5--5----5----3----3----3--3----3--|
B|--5----5----5--5----5----3----3----3--3----3--|
G|--5----5----5--5----5----4----4----4--4----4--|
D|--7----7----7--7----7----5----5----5--5----5--|
A|--7----7----7--7----7----5----5----5--5----5--|
E|--5----5----5--5----5----3----3----3--3----3--|

Play it funky, sometimes play a chord and try to add a little echo to it also some kind 
of vibrato / delay sound is great too.
You can also add mutes like so:

e|--(5)-5-xx-5--x--5--5--xx--5--(3)-3--x--3--xx--3--3--xx--3--|
B|--(5)-5-xx-5--x--5--5--xx--5--(3)-3--x--3--xx--3--3--xx--3--|
G|--(5)-5-xx-5--x--5--5--xx--5--(4)-4--x--4--xx--4--4--xx--4--|
D|--(7)-7-xx-7--x--7--7--xx--7--(5)-5--x--5--xx--5--5--xx--5--|
A|--(7)-7-xx-7--x--7--7--xx--7--(5)-5--x--5--xx--5--5--xx--5--|
E|--(5)-5-xx-5--x--5--5--xx--5--(3)-3--x--3--xx--3--3--xx--3--|

You can play 1 (x), or 2, or you can not play one.


Some other guitar goes:

e|--7-7-7----5--|
B|--8-8-9----5--|
G|--9-9-9----5--|
D|--------------|
A|--------------|
E|--------------|

************************************

| /   slide up
| \   slide down
| h   hammer-on
| p   pull-off
| ~   vibrato
| +   harmonic
| x   Mute note
| b   Bend
| pb  Pre-bend
| br  Bend release
| pbr Pre-bend release
| brb Bend release bend

************************************
Tap to rate this tab
# A B C D E F G H I J K L M N O P Q R S T U V W X Y Z