Song name
# A B C D E F G H I J K L M N O P Q R S T U V W X Y Z

Sinatra Frank - Strangers In The Night tab

This is taken from a live performance of the Oliver Dawson Band so don't put the
original on and tell me it's wrong because this is exactly how he plays it on my
version. my guess is that it'll be similar to other versions of it any way.



Intro Solo
E-15B17R15----------------------------------------------------
B----------15B17R15-12----------------------------------------
G----------------------14B16R14P12----12----12----12H14-12~~~-
D----------------------------------14----14----14-------------
A-------------------------------------------------------------
E-------------------------------------------------------------

E-------------15B17R15-17B19-17B19-
B-15-17B19R17----------------------
G----------------------------------
D----------------------------------
A----------------------------------
E----------------------------------

E-15-17B-15----------------------------------------
B----------17-15-17~B19~-15------------------------
G---------------------------16R14P12-14-12~-0\-----
D---------------------------------------------\----
A----------------------------------------------\---
E-----------------------------------------------\_-

E-----------------------------------10B12-
B----------8---------7-8-10B12r10-8-------
G--/9~--/9---9-9~-/9----------------------
D-----------------------------------------
A-----------------------------------------
E-----------------------------------------

E-12-14-15-17-17b19-17-15-14-15-14--------------------
B----------------------------------15-14--14h15p14/12-
G-----------------------------------------------------
D-----------------------------------------------------
A-----------------------------------------------------
E-----------------------------------------------------

E--------------------------------------------------
B----12--------------------------------------------
G-14----14-12----12~-------------------------------
D-------------14-------14-12-----------------------
A---------------------------14-13-12-------12-14/--
E------------------------------------14-15---------


Middle Solo
E------------------------------------------17B19~~~~-15-
B---------------------------------15B17~~~--------------
G-14B16R14B16~-12----12-14~-12--------------------------
D-----------------14-----------14-----------------------
A-------------------------------------------------------
E-------------------------------------------------------

E--------------------------------------
B---17B19~~-15B17R15--12---------------
G------------------------14B16~~-------
D--------------------------------------
A--------------------------------------
E--------------------------------------
Tap to rate this tab
# A B C D E F G H I J K L M N O P Q R S T U V W X Y Z