Song name
# A B C D E F G H I J K L M N O P Q R S T U V W X Y Z

Since August - If You tab

Help us improve GuitareTab! Take a short survey!
Hey guys! This Band Is Awesome And I Just Had To Put This Tab Out. Here It Is! Enjoy!
    Intro

E------------------
B----------9/1010/9
G---9-7-9-7--------   Repeat
D------------------
A--7-7-7-7---------
E------------------
   do that a couple of times then go to this
E-----------------
B-----------------
G-----------------
D-99999999-77777777
A-99999999-77777777
E-77777777-55555555
     Verse
E------------------
B------------------
G-9xx99999---------   I'm not gonna work in the Strumming
D-9xx99999-9xx99999     i think that you guys can find it
A-7xx77777-9xx99999
E----------7xx77777
   Chorse
E-------------------------------------
B---------------------------9/10-10-9-
G--------------------9-7-9-7----------
D-99999999-77777777-------------------
A-99999999-77777777-7-7-7-7-----------
E-77777777-55555555-------------------
   During Solo
E--------
B---------
G-9xxx7777
D-9xxx7777
A-7xxx5555
E---------



Sorry I Don't Have The Solo, I'll Work on It. If There Are
Any Questions Or Comments E-Mail Me At Jeremymc6@hotmail.com
Related for If You tab