Song name
# A B C D E F G H I J K L M N O P Q R S T U V W X Y Z

Sinclair - Theory tab

Sinclaire, Theory


this is just the intro, sorry.

-------0-----------------------------------------------|
---------5---------------------------------------------|
-----------6-------------------------------------------|
-------------------------------------------------------|
-------------------------------------------------------|
-------------------------------------------------------|


or i find this one sounds better, and i like the chord
it makes (shown below)

-------0------------------0-----------------------------|
--------------------------------------------------------|
---------9----------------9-----------------------------|
------------11------------11----------------------------|
--------------------------------------------------------|
--------------------------------------------------------|

email me kjoke8@hotmail.com with feedback or if u have
more sinclaire tabs :)
Tap to rate this tab
# A B C D E F G H I J K L M N O P Q R S T U V W X Y Z