Song name
# A B C D E F G H I J K L M N O P Q R S T U V W X Y Z

Sinosikat - Praning tab

PRANING by Sinosikat


INTRO 1:

e|-----|
B|-----|
G|-10--|
D|-10--|
A|-8---|
E|-----|

e|---------|
B|---------|
G|-8-9-10--| 6x
D|-8-9-10--|
A|-6-7-8---|
E|---------|

e|-------|
B|-------|
G|-10-10-|
D|-10-10-|
A|-8--8--|
E|-------|


INTRO 2 at VERSE:

guitar 1:

e|------------------------\
B|------------------------ \
G|------------------------  \
D|-------7-6\5------------   \
A|-5-8p5------------------    \
E|------------------------     \
                                \ 2x
guitar 2:                       / 
e|------------------------     /
B|--------------------10--    /
G|---------------8h10-10--   /
D|---------------8h10-10--  /
A|---------------8-------- /
E|------------------------/

guitar 1:

e|---------------------|
B|---------------------|
G|---------------------|
D|---------5-5-6-6-7\--|
A|-5-5-8-8-------------|
E|---------------------|


CHORUS:
   G    A    CM7  B7
e|-3----5----3----2--|
B|-3----5----5----4--|
G|-4----7----4----2--|
D|-5----6----5----4--|
A|-5----7----3----2--|
E|-3----5------------|
   G    F   Eb E F
e|-3----------------|
B|-3----------------|
G|-4----10--8-9-10--|
D|-5----10--8-9-10--|
A|-5----8---6-7-8---|
E|-3----------------|

etc...

*note: di ko sigurado yung sa CHORUS pati guitar 2 ng VERSE

NITRAM
05-17-10
11:21 AM
Tap to rate this tab
# A B C D E F G H I J K L M N O P Q R S T U V W X Y Z